Log in

One click and you are in

Login with Facebook Login with Google

Why sign up and log in

Guitar Tabs Explorer
Metallica chords for -human

Guitar chords

Album: S&M

Tune all guitars down 1 1/2 step (Drop A chord diagramC majorC)


Intro: San Francisco Symphony
Intro Riff (Chorus):
c#-----------------------------------------------
G#-----------------------------------------------
E------------------------------------------------
B----2-2-2-----------7---5---2-2-2-9-8--2-4-5-5--
F#---2-2-2-----------7---5---2-2-2-9-8--2-4-5-5--
C#---0-0-0-7~~0-6~~--5-0-3---0-0-0-7-6--0-2-3-3--

Pre-Verse:
|Guitar 1
|c#--------------------------------------------       -------------
|G#--------------------------------------------       -------------
|E---------------------------------------------       -------------
|B----2-----2-----2-----2--------8/9\8\7------- three --5/7\5\4----
|F#---2-----2-----2-----2--------8/9\8\7------- times --5/7\5\4----
|C#---0-----0-----0-----0--------6/7\6\5------- then  --3/5\3\2----
|
|Guitar 2 (1st time guitar 1 only)
|c#--------------------------------------------       --------------
|G#--------------------------------------------       --------------
|E----7-----7-----7-----7-------13/14\13\12----       -10/12\10\9---
|B----x-----x-----x-----x--------x/-x\-x\-x---- three --x/-x\-x\x---
|F#---5-----5-----5-----5-------11/12\11\10---- times --8/10\-8\7---
|C#-------------------------------------------- then  --------------


Verse:
E-------------------------------------------------------------------
B----2--2--5--5--7--7--2-2-2-2--8/9\8\7--2--2--5--5--7--7--9-9-9-9--
F#---2--2--5--5--7--7--2-2-2-2--8/9\8\7--2--2--5--5--7--7--9-9-9-9--
C#---0--0--3--3--5--5--0-0-0-0--6/7\6\5--0--0--3--3--5--5--7-7-7-7--
"Don't you leave me, father time..."


Solo Backing (let chords ring):
E------------------
B----2----2----2---
F#---2----2----2---
C#---0----0----0---

Song structure:

Intro

Intro Riff x4
Pre-Verse  x2

Verse
Pre-Verse

Intro Riff x2
Pre-Verse

Verse
Pre-Verse

Intro Riff x2

Solo

Intro Riff x2

Almost there ...

Sign in to get your own page with links to favourite songs and more. You are just one click away...

Login with Facebook Login with Google