Log in

One click and you are in

Login with Facebook Login with Google

Why sign up and log in

Guitar Tabs Explorer
Metal Church tabs for The powers that be

Guitar tabs

Metal Church "The Powers That Be" from BLESSING IN DISGUISE (1989)

Tabbed by Nick S. I'm not saying what's palm-muted in this tab 'cause if you
plan to learn the song you should already know.
Riff 1 5x
G-----------------4---------------------------------------4-------4---------
D-----4--6--7--6----------4--6--2--4--0-------4--6--7--6-------------7--6---
A---------------------------------------------------------------------------
E-0-0----------------0-0-----------------0-0-----------------0-0------------

G-------
D-2-2---
A-0-0---
E-------


Riff 2 twice
G-------------------------------------------------------------------7-----
D-------------------------------------------------------------------5-----
A-5--------------------------------5--------------------------------------
E-3--3-3-3-3-3-3-3-3-3-3-3-3-3-3---3--3-3-3-3-3-3-3-3-3-3-3-3-3-3---------

G-6-----7-----6---
D-4-----5-----4---
A-----------------
E-----------------


Riff 3 once
D-2------5------2-----3-3-3-----------
A-0------3------0-----1-1-1--3-3-3----
E----------------------------1-1-1----

Riff 1 twice

Riff 2 twice

Riff 3 once

Riff 1 twice


Riff 4A twice
G---------------------------------------------------------------------------
D-6--6-6-6-6-6-6-6-6-6-6-6-6-6---2--------------------------------6--6-6-6-6
A-4--4-4-4-4-4-4-4-4-4-4-4-4-4---0--0-0-0-0-0-0-0-0-0-0-0-0-0-0---4--4-4-4-4

G---------------------4--------
D-6-6-6-6-6-6-6-6-6---2----4---
A-4-4-4-4-4-4-4-4-4--------2---


Riff 4A ending
D-6----------------------6/4---4-4-4-4--4---
A-4----------------------4/2---2-2-2-2--2---


Riff 4B twice
G---------------------------------------------------------------4----6----4--
D---------------------------------------------------------------2----4----2--
A-4-4-4-4-4-4-4-4-4-4-4-4-4-4-4-4-4-4-4-4-4-4-4-4-4-4-4-4-4-4----------------


Riff 5 once
D-4--------4------2-2-2----------------
A-2--------2------0-0-0------2--4-4----
E----------------------------0--2-2----


Riff 4C 6x
G----------------------------------------------------------------------------
D-4-4-4-4--4-4-4-4--4-4-4----------------------------------4-4-4-4--4-4-4-4--
A-2-2-2-2--2-2-2-2--2-2-2--5-------------------------------2-2-2-2--2-2-2-2--
E--------------------------3--3-3-3-3-3-3-3-3-3-3-3-3-3-3--------------------

G--------2---------
D-4-4-4--0-----2---
A-2-2-2--------0---
E------------------


Riff 1 twice

Riff 2 twice

Riff 3 once

Riff 1 4x
After 4th time play:
D--------------------------7-----9------
A-2------------------------5-----7------
E-0-------------------------------------
Let the last chord ring a little then play it again.

Any questions, corrections, blah blah blah send me an E-mail
Pantera9560@aol.com w/ the subj. "Metal Church gtr. tablature." Keep checking
back for more Metal Church tabs.

Almost there ...

Sign in to get your own page with links to favourite songs and more. You are just one click away...

Login with Facebook Login with Google