Log in

One click and you are in

Login with Facebook Login with Google

Why sign up and log in

Guitar Tabs Explorer
Mest tabs for Whats the dilio

Guitar tabs

Mest - Whats The Dillio?
Tabbed By: Nellog

Standart tunning
figure out timing yourself
Intro:
|------------------------------|
|------------------------------|
|------------------------------|
|-----------6-9----------------|
|-7-7---7------------------6-9-|
|----------------7---7---------|

|------------------------------|
|------------------------------|
|------------------------------|
|---------6---9----------------|
|-7-7---7----------------6-----|
|----------------7---7-------7-|

|------------------------------|
|------------------------------|
|------------------------------|
|---------6---9----------------|
|-7-7---7----------------6---9-|
|----------------7---7---------|

|------------------------------|
|------------------------------|
|------------------------------|
|---------6---9--------11------|
|-7-7---7--------7--9----------|
|------------------------------|

Verse: With ska upstrokes...dont emphasize the high e string
|---7----7----7----7----9----9----9----9-|
|---9----9----7----7---11---11---11---11-|
|---9----9----8----8---11---11---11---11-|
|---9----9----9----9---11---11---11---11-|
|----------------------------------------|
|----------------------------------------|

distortion:
|----------------------------------------|
|----------------------------------------|
|------------4---------------------------|
|-2----------4----------4----------------|
|-2----------2----------4----------------|
|-0---------------------2----------------|


Chorus: "whats the d d d dillio dillio....."
|-7----7----7----7----7----7----7----7----7----7----7----7----7----7----9----9-|
|-9----9----7----7----9----9----7----7----9----9----7----7----9----9---11---11-|
|-9----9----8----8----9----9----8----8----9----9----8----8----9----9---11---11-|
|-9----9----9----9----9----9----9----9----9----9----9----9----9----9---11---11-|
|------------------------------------------------------------------------------|
|------------------------------------------------------------------------------|


Solo: Play with verse rythm
|----------------------------------------------------------------|
|----------------------------------------------------------------|
|-4-/-9-9-9-8------------------------/9-9-9-8--------------------|
|-------------9--9/11-11--13--11--------------9---9-9-9/11--8----|
|----------------------------------9---------------------------9-|
|----------------------------------------------------------------|

|----------------------------------------------------------------|
|-9---9--9--7-----------------------9---9--9--7------------------|
|-9---9--9--8---8---9--9--9/11--9---9---9--9--8---8--------------|
|---------------9--11-11-11/13-11-----------------9---/12--------|
|----------------------------------------------------------------|
|----------------------------------------------------------------|

Later on when the distorted part plays again
Play this with the bottom chords for the last 2 times:
|------------------------------9--9--9--9--9--9---|
|-9----7----11-------9----7---10-10-10-10-10-10---|
|-9----8----11-------9----8-----------------------|
|-------------------------------------------------|
|-------------------------------------------------|
|-------------------------------------------------|

|-------------------------------------------------|
|-------------------------------------------------|
|---------4----------------------4------2---------|
|-2-------4-------4------2-------4------2---------|
|-2-------2-------4------2-------2------0---------|
|-0---------------2------0------------------------|


Outro: Distorted
|-------------------------------------------------|
|-------------------------------------------------| you can figure out how many times
|-9---------9----------9----------9---11----------| to strum each one yourself
|-9----9----9-----9----9-----9----9---11----------|
|-7----9----7-----9----7-----9----7----9----------|
|------7----------7----------7--------------------|

|------------------------------|
|------------------------------|
|-9---9-----9---9----9---9-----|
|-9---9-----9---9----9---9-----|
|-7---7-----7---7----7---7-----|
|------------------------------|
ⓘ Guitar tab for 'Whats The Dilio' by Mest, a pop-punk band formed in 1996

Almost there ...

Sign in to get your own page with links to favourite songs and more. You are just one click away...

Login with Facebook Login with Google