Cadillac by Mest

Cadillac chords by Mest

Guitar chords with lyrics

Artist: Mest
Song: Cadillac
Album: Destination Unknown, 2001
Tabbed By: Nicola Holt

I love this song and it=92s really easy to play look

Im not sure of the rhythms but here are the cords you can figure
it out yourself. Listen to the song and it will become clear

Intro:
e|------------------------------------
B|------------------------------------
G|----55------------------------------
D|----55----44---33---44-------------- =20
A|----33----44---33---44--------------
E|----33----22---11---22--------------

Verse 1 Palm Mute
(Its Friday night=85)
e|------------------------------------
B|------------------------------------
G|----55------------------------------
D|----55----55---77---33-------------- =20
A|----33----55---77---33--------------
E|----33----33---55---11--------------

I see her later on=85 (this is the same but faster and not palm muted)
the same cords until =91with the top down sat back where you play the =20
intro

Chorus 1 (Intro)
e|------------------------------------
B|------------------------------------
G|----55------------------------------
D|----55----44---33---44-------------- =20
A|----33----44---33---44--------------
E|----33----22---11---22--------------

Verse 2 =96 same as verse one
Chorus 1 =96Intro again

Second chorus (Rollin=85)
e|------------------------------------
B|------------------------------------
G|----55------------------------------
D|----55----55---33---55-------------- =20
A|----33----55---33---55--------------
E|----33----33---11---33--------------

Then u can figure the rest of the song out, no guitar solo in this =20
one and when the bass is playing leave the guitar out.

Any problems of flaws e-mail me, there may be some mistakes but there=92s=
 =20
no mest songs on here so I thought id contribute :)
 nicola_holt88@hotmail.com

Find guitar tabs and chords

A B C D E F G H I J K L M N O P Q R S T U V W X Y Z #