Log in

One click and you are in

Login with Facebook Login with Google

Why sign up and log in

Guitar Tabs Explorer
Jeremy Messersmith guitar chords for The commuter

Guitar chords with lyrics

The Commuter
Jeremy Messersmith

Chords:

G5: 000033

Intro: A chord diagramC majorC
A chord diagramC majorC

A chord diagramC majorC
Some nights I can't feel my beating heart,
A chord diagramC majorC
I've got a second-hand body made with junk-yard parts.
A chord diagramC majorC
An ink-blot head that makes it hard to care,
A chord diagramC majorC
Broke-down hands won't get me anywhere.

A chord diagramG MajorG
But when I drive this car to work
A chord diagramC majorC
I feel like I'm going places,
A chord diagramC majorC
Landscapes all around me seem to change.
A chord diagramG MajorG
And when I drive this car to work
A chord diagramC majorC
I feel like I'm made of something,
A chord diagramC majorC
Some day things will start to go my way.

A chord diagramC majorC
I spend my evenings lying on this couch,
A chord diagramC majorC
Countin' all the cracks in this old house.
A chord diagramC majorC
TV dinner boxes on the floor,
A chord diagramC majorC
I'm down 'cause you don't live here anymore.
A chord diagramG MajorG
But when I drive this car to work
A chord diagramC majorC
I feel like I'm going places,
A chord diagramC majorC
Landscapes all around me seem to change.
A chord diagramG MajorG
And when I drive this car to work
A chord diagramC majorC
I feel like I'm made of something,
A chord diagramC majorC
Some day things will start to go my way.

E|--------------------------------------------------------------------------|
B|--1-----1--0--------0-----------------0--------1-----1--0--------0--3-----|
G|0-----0--------2--2-----0--0--0--0--2-----0--0-----0--------2--2--------0-|
D|--------------------------------------------------------------------------|
A|--------------------------------------------------------------------------|
E|--------------------------------------------------------------------------|

E|------------------------------------------------------------------------0-|
B|--1-----1--0--------0-----------------0--------1-----1--0--------0--3-----|
G|0-----0--------2--2-----0--0--0--0--2-----0--0-----0--------2--2----------|
D|--------------------------------------------------------------------------|
A|--------------------------------------------------------------------------|
E|--------------------------------------------------------------------------|

A chord diagramG MajorG
But when I drive this car to work
A chord diagramC majorC
I feel like I'm going places,
A chord diagramC majorC
Landscapes all around me seem to change.
A chord diagramG MajorG
And when I drive this car to work
A chord diagramC majorC
I feel like I'm made of something,
A chord diagramC majorC

Almost there ...

Sign in to get your own page with links to favourite songs and more. You are just one click away...

Login with Facebook Login with Google