Log in

One click and you are in

Login with Facebook Login with Google

Why sign up and log in

Guitar Tabs Explorer
Jeremy Messersmith guitar tabs for Knots

Guitar tabs with lyrics

-------------------------------------------------------------------------------
                             Knots - Jeremy Messersmith
-------------------------------------------------------------------------------
Tabbed by: Max
E-mail: maxwell.chan1@hotmail.com

Tuning: standard
intro
e|-------3--5---2--3-------------0-------------------------------------------|
B|--------0------0---0------------1--3p1--1--0-------------------------------|
G|---------0--0---0---0------------0----0--0---0-----------------------------| x2
D|---------------------------------------------------------------------------|
A|----------------------------3-------------3---3----------------------------|
E|----3----------------------------------------------------------------------|

note: strum all the chords in the song in pairs

filler (in chords)
GG GG GG GG CC CC CC CC x2
or
e|----7---7-5-----5-3----3-2---3-2-0--/8-------------------------------------|
B|------3-------3------3-----------------------------------------------------|
G|---------------------------------------------------------------------------| x2
D|---------------------------------------------------------------------------|
A|---------------------------------------------------------------------------|
E|---------------------------------------------------------------------------|



verse 1
A chord diagramG MajorG                                                    A chord diagramC majorC
Black sweatband, sticks blur in her hands; she's the drummer
    A chord diagramG MajorG                                           A chord diagramC majorC
She weaves a beat through Kinks and Deep Purple covers

chorus
A chord diagramA minorAm                  A chord diagramD MajorD
Can't shake her off
          A chord diagramB minorBm         A chord diagramE minorEm
She keeps me tied in knots
    A chord diagramA minorAm                      A chord diagramD MajorD
I'm tangled from the inside out

filler

verse 2
Strung out and tired, a funeral-crier; I'm heartsick
So I twist and turn till the ropes start to burn and I'm frantic

chorus
filler

verse 3 - play the intro while singing this part
All those uptown boys making noise but she just yawns      A chord diagramC majorC chord
With a wicked back beat, she flips them off and then she's gone

chorus
filler

CHORDS USED IN THIS SONG

A chord diagramG MajorG
e ---|---|-x-|---|---|
A chord diagramBB ---|---|---|---|---|
A chord diagramG MajorG ---|---|---|---|---|
A chord diagramD MajorD ---|---|---|---|---|
A chord diagramA majorA ---|-x-|---|---|---|
A chord diagramE MajorE ---|---|-x-|---|---|

A chord diagramC majorC
e ---|---|---|---|---|
A chord diagramBB -x-|---|---|---|---|
A chord diagramG MajorG ---|---|---|---|---|
A chord diagramD MajorD ---|-x-|---|---|---|
A chord diagramA majorA ---|---|-x-|---|---|
A chord diagramE MajorE ---|---|-o-|---|---|

A chord diagramA minorAm
e ---|---|---|---|---|
A chord diagramBB -x-|---|---|---|---|
A chord diagramG MajorG ---|-x-|---|---|---|
A chord diagramD MajorD ---|-x-|---|---|---|
A chord diagramA majorA ---|---|---|---|---|
A chord diagramE MajorE ---|---|---|---|---|

A chord diagramD MajorD
e ---|-x-|---|---|---|
A chord diagramBB ---|---|-x-|---|---|
A chord diagramG MajorG ---|-x-|---|---|---|
A chord diagramD MajorD ---|---|---|---|---|
A chord diagramA majorA ---|---|---|---|---|
A chord diagramE MajorE ---|---|---|---|---|

A chord diagramB minorBm
e ---|-x-|---|---|---|
A chord diagramBB ---|---|-x-|---|---|
A chord diagramG MajorG ---|---|---|-x-|---|
A chord diagramD MajorD ---|---|---|-x-|---|
A chord diagramA majorA ---|-x-|---|---|---|
A chord diagramE MajorE ---|-o-|---|---|---|

A chord diagramE minorEm
e ---|---|---|---|---|
A chord diagramBB ---|---|---|---|---|
A chord diagramG MajorG ---|---|---|---|---|
A chord diagramD MajorD ---|-x-|---|---|---|
A chord diagramA majorA ---|-x-|---|---|---|
A chord diagramE MajorE ---|---|---|---|---|

Other versions of Knots

KnotsChords

Almost there ...

Sign in to get your own page with links to favourite songs and more. You are just one click away...

Login with Facebook Login with Google