Log in

One click and you are in

Login with Facebook Login with Google

Why sign up and log in

Guitar Tabs Explorer
Mercyful Fate tabs for To one far away

Guitar tabs

Title: "To one far away",

taken from the Mercyful Fate album Don't break the oath.
Only the acoustic guitar part is transcribed.
E:---2-----2-------2---2-----------0------0-----|
B:---3-------3-----2-----2---------3--------3---|
G:---4---------4---4-------4-------4----------4-|
D:---4-------------4---------4-----4------------|
A:2----(2)---------2-----------2-0----(0)-------|
E:----------------------------------------------|

E:0--0------------------------------------------|
B:2----2----------0--0-------------0------------|
G:4------4--------0----0-------------0----------|
D:4--------5------0------0------0------0--------|
A:-----------0----2-----------0-----------------|
E:-------------3------------2-------------------|

E:----------------------------------------------|
B:------0--0------------0-----------------------|
G:------0----0--------0---0---------------------|
D:------2------2----2-------0-------------------|
A:------2-----------------------0--2------------|
E:3-2-0----------0------------0-----------------|

E:---2-----2-------2---2-----------0------0-----|
B:---3--------3----2-----2---------3--------3---|
G:---4-------------4-------4-------4----------4-|
D:---4-------------4---------4-----4------------|
A:2----(2)---------2-----------2-0----(0)-------|
E:----------------------------------------------|

E:0-0-------------------------------------------|
B:2---2---------------0----------------0--------|
G:4-----4---------------0------------0---0------|
D:4-------5-------0-------0--------0-------0----|
A:----------0---2-----------2----0-----------0--|
E:------------3---------------3-2--------------2|

E:----------------------------------------------|
B:--------0---------------0---------------------|
G:------0---0-----------0---0-------------------|
D:----2-------2-------2-------0-----------------|
A:--2-----------2---2-----------2---------------|
E:0---------------0-----------------------------|

If you find any mistakes or if anyone has solos or any type of
music transcriptions to any King Diamond or Mercyful Fate songs
please drop me a line at pige@deakin.edu.au. Even if you don't
have any transcriptions to hear from any King Diamond/Mercyful
Fate fans would be cool.
pige@deakin.edu.au

Almost there ...

Sign in to get your own page with links to favourite songs and more. You are just one click away...

Login with Facebook Login with Google