Log in

One click and you are in

Login with Facebook Login with Google

Why sign up and log in

Guitar Tabs Explorer
Mercyful Fate tabs for My demon

Guitar tabs

From ozmetin@pan.phys.boun.edu.tr Thu May  8 13:48:10 1997


Song  : "My Demon" from the album "Time".

Tab created and edited by serkan Gunturk
E-mail: gunturkk@boun.edu.tr


  my demon
e:----------------------------------------------------------|
B:----------------------------------------------------------|
G:-----9---7---9---7---------------------------------------o|
D:-7-------------------10--9---7-------7---9---------------o|
A:---------------------------------11----------7---9---11---|
E:----------------------------------------------------------|




e:-------------------------|----------------------------|
B:-------------------------|----------------------------|
G:-----9---7---9---7-------|----------------------------|
D:-7-------------------11--|-{0}--9---10--{0}---12--10--|
A:-------------------------|------7---8---------10--8---|
E:-------------------------|----------------------------|




e:-----------------------------|
B:-----------------------------|
G:-----------------------------|
D:-----------------------------|
A:-{0}---9---10--{0}---12--10--|
E:-------7---8---------10--8---|



e:---------------------------------------------------------------------|
B:---------------------------------------------------------------------|
G:--------------------------------------------------------------------o|
D:--10--9---------10--9---------10--9---------9---10--9---7---5---7---o|
A:--8---7---------8---7---------8---7---------7---8---7---5---3---5----|
E:----------{0}-----------{0}-----------{0}----------------------------|




e:---------------------------------------------------------------------------|
B:---------------------------------------------------------------------------|
G:---------------------------------------------------------------------------|
D:-9---10--9---7---5---7---9---10--9---7---5---7---9---10--9---7---5---4---4-|
A:-7---8---7---5---3---5---7---8---7---5---3---5---7---8---7---5---3---2---2-|
E:---------------------------------------------------------------------------|





e:------|------------|--------------------------------------------------|
B:------|------------|--------------------------------------------------|
G:------|------------|--------------------------------------------------|
D:--2---|------------|--------------------------------------------------|
A:--0---|------------|--4---2---4-----------4---2---4-----------4---5---|
E:------|------------|--2---0---2---2---2---2---0---2---2---2---2---3---|
          solo...



e:--------------------------------------------------|
B:--------------------------------------------------|
G:--------------------------------------------------|
D:--------------------------------------------------|
A:--6---4---6-----------6---4---6-----------6---7---|
E:--4---2---4---4---4---4---2---4---4---4---4---5---|




e:------------------------------------------------------------------|
B:------------------------------------------------------------------|
G:------------------------------------------------------------------|
D:--------------------------------------------------3---------------|
A:--4---4---4---5---4---2---4---5---4---4---4---5---1---1---4---5---|
E:--2---2---2---3---2---0---2---3---2---2---2---3-------3---2---3---|




e:------------------------------------------------------------------|
B:------------------------------------------------------------------|
G:------------------------------------------------------------------|
D:--------------------------------------------------5---------------|
A:--6---6---6---7---6---4---6---7---6---6---6---7---3---7---6---7---|
E:--4---4---4---5---4---2---4---5---4---4---4---5-------5---4---5---|



Serkan Gunturk
Bogazici University
Physics Department
Istanbul

Almost there ...

Sign in to get your own page with links to favourite songs and more. You are just one click away...

Login with Facebook Login with Google