Log in

One click and you are in

Login with Facebook Login with Google

Why sign up and log in

Guitar Tabs Explorer
Mercyful Fate tabs for Mad arab

Guitar tabs

From ozmetin@pan.phys.boun.edu.tr Thu May  8 13:47:59 1997


Song  : "Mad arab" from the album "Time".
Tab created and edited by Serkan Gunturk
E-mail: gunturkk@boun.edu.tr

  mad arab
e:---------------------3---2h3p2-------6---5h6p5---3---2---------------------|
B:-----3-------3---4---------------4-----------------------4-------3-------3-|
G:---------5-----------------------------------------------------------5-----|
D:-0-----------------------------------------------------------0-------------|
A:---------------------------------------------------------------------------|
E:---------------------------------------------------------------------------|




e:------3---2h3p2-------------------|
B:--4---------------4---3---5p2/5---|
G:----------------------------------|
D:----------------------------------|
A:----------------------------------|
E:----------------------------------|




e:---------------------3---2h3p2-------6---5h6p5---3---2---------------------|
B:-----3-------3---4---------------3-----------------------4-------3-------3-|
G:---------5-----------------------------------------------------------5-----|
D:-0-----------------------------------------------------------0-------------|
A:---------------------------------------------------------------------------|
E:---------------------------------------------------------------------------|



e:--------------------------------------|
B:--4-----------------------------------|
G:------2---3---2h3p2-------------------|
D:----------------------5---4---5---4---|
A:--------------------------------------|
E:--------------------------------------|




e:---------------------------------------------------------------------------|
B:---------------------------------------------------------------------------|
G:---------------------------------------------------------------------------|
D:---------10--9---10----------9---7---9---8---7h8p7-------------------------|
A:---------8---7---8-----------7---5---7---------------10--8---7-------------|
E:-0---0---------------0---0---------------------------------------10--8---7-|





e:------------------------------------------------------|
B:------------------------------------------------------|
G:-----------------------------------------------------o|
D:----------10--9---10----------9---7---9-------8---7--o|
A:----------8---7---8-----------7---5---7---------------|
E:--0---0---------------0---0---------------0-----------|




e:-------------------------------------------------|
B:-------------------------------------------------|
G:------------------------------------------------o|
D:-------------------------7---6---7---9---10--9--o|
A:-8---5---8---7---0---0---5---4---5---7---8---7---|
E:-6---3---6---5-----------------------------------|




e:-------------------------------------------------------------------|
B:-------------------------------------------------------------------|
G:-----------------------9-------------------9-----------------------|
D:--------------9---9--------9---8---9---9-------9---10--------------|
A:--8---5---8---7---7----------------7---7---------------7---7---8---|
E:--6---3---6---0---0----------------0---0---------------5---5---6---|




e:---------|
B:---------|
G:---------|
D:---------|
A:---------|
E:---------|
    solo...

Almost there ...

Sign in to get your own page with links to favourite songs and more. You are just one click away...

Login with Facebook Login with Google