Log in

One click and you are in

Login with Facebook Login with Google

Why sign up and log in

Guitar Tabs Explorer
Mercyful Fate tabs for Gypsy

Guitar tabs

🏷Legend:
-------
P.M--- 	mute
( 	bend up
) 	bend down
H 	hammer on
P 	pull
A.H 	artificial harmonic
// 	vibrato
/ 	slide up
 	slide down
T   	tap
//	repeat phrase

Title: ¨Gypsy¨, taken from the Mercyful Fate album ’Don’t break the Oath’.
(Music: King Diamond/Michael Denner; Lyrics: King Diamond)

E:----------------------------------------------|
B:----------------------------------------------|
G:3------------------------------------7---6----|
D:3-----------------4-----4---5--------7---6----|
A:1------------------------------------5---4----|
E:--------------1/2---2-2---2---2-2-2-----------|

This magic Winter ...
E:---------------------------------|
B:---------------------------------|
G:---------------------------------|
D:----------4---5----------2-------|
A:-------------------------0--2----|
E:2-2-2-2-2---2---2-2-2-2-----0----|

Again I hear that Tune, ...
E:------------------------------|
B:------------------------------|
G:---------------------7---6----|
D:--------4---5--------7---6----|
A:---------------------5---4----|
E:2-2-2-2---2---2-2-2-----------|
                                 Oh No ...
E:--------------------------------------------|
B:--------------------------------------------|
G:--------------------------------------------|
D:------------4---5-----------5-4-------------|
A:----------------------------5-4-------------|
E:2-2-2-2-2-2---2---2-2-2-2-2-3-2-------------|

      Oh my ...
E:--------------------------------------------|
B:--------------------------------------------|
G:--------------------------------------------|
D:-5-4------------5-4-------------------------|
A:-5-4------------5-4----------2-3-2-3-2------|
E:-3-2------------3-2--------------------5-3-0|

E:------------------------------|
B:------------------------------|
G:---------------------7---6----|
D:--------4---5--------7---6----|
A:---------------------5---4----|
E:2-2-2-2---2---2-2-2-----------|

I see them Gypsy ...
E:-----------------------------------|
B:-----------------------------------|
G:-----------------------------------|
D:----------4---5------------2-------|
A:---------------------------0--2----|
E:2-2-2-2-2---2-----2-2-2-2-----0----|

Oh I must see that ...
E:------------------------------|
B:------------------------------|
G:---------------------7---6----|
D:--------4---5--------7---6----|
A:---------------------5---4----|
E:2-2-2-2---2---2-2-2-----------|

E:-----------------------------------|
B:-----------------------------------|
G:-----------------------------------|
D:----------4---5------------2-------|
A:---------------------------0--2----|
E:2-2-2-2-2---2-----2-2-2-2-----0----|

	Gypsy ...
E:---------------------------------|
B:---------------------------------|
G:-3---------------------------3---|
D:-3-------------2-------------3---|
A:-1-------------0-------------1---|
E:---------------------------------|

Solo: M.D.

E:-12-14-12-11----11-------------------------------|
B:-------------14----14-12-14-12-11----------------|
G:----------------------------------13-13-11-13-15-|
D:-------------------------------------------------|
A:-------------------------------------------------|
E:-------------------------------------------------|

E:-------------------------------------------------|
B:-------------------------------------------------|
G:-13-11-------------------------------------------|
D:-------13-11-13-11-9-11-9----9---H---------------|
A:--------------------------10---10-11-------------|
E:-------------------------------------------------|

E:-------------------------------------------------|
B:-9-9-9-9-12-12-12-12-11-11-11-11-14-14-14-14-----|
G:-------------------------------------------------|
D:-------------------------------------------------|
A:-------------------------------------------------|
E:-------------------------------------------------|

E:---(-)--------------------------H----------------|
B:-14---12-11-12-11-------------11-12----///----|
G:------------------13-11----11-------13-----------|
D:------------------------13-----------------------|
A:-------------------------------------------------|
E:-------------------------------------------------|

E:-----H------------------------(-///---(-)-----|
B:-(16)--17-16-14----------16-19---------19---17-16|
G:----------------16-15----------------------------|
D:----------------------18-------------------------|
A:-------------------------------------------------|
E:-------------------------------------------------|

E:-------------------------------------------------|
B:-17-16----16----------(-///--12-11-12-11-12-11-|
G:-------18----18-16-18----------------------------|
D:-------------------------------------------------|
A:-------------------------------------------------|
E:-------------------------------------------------|
                                                  //
E:------------10-11-10----10------------------------|
B:------11-12----------12----12-11-12-11----11------|
G:12-13----------------------------------13----12-13|
D:--------------------------------------------------|
A:--------------------------------------------------|
E:--------------------------------------------------|

E:------------------------------|
B:------------------------------|
G:---------------------7---6----|
D:--------4---5--------7---6----|
A:---------------------5---4----|
E:2-2-2-2---2---2-2-2-----------|

They say you know the ...
E:----------------------------------------|
B:----------------------------------------|
G:----------------------------------------|
D:----------4---5------------2------------|
A:---------------------------0-------2----|
E:2-2-2-2-2---2-----2-2-2-2----------0----|

So gaze into your Crystal ...
E:------------------------------|
B:------------------------------|
G:---------------------7---6----|
D:--------4---5--------7---6----|
A:---------------------5---4----|
E:2-2-2-2---2---2-2-2-----------|

E:-----------------------------------|
B:-----------------------------------|
G:-----------------------------------|
D:----------4---5------------2-------|
A:---------------------------0--2----|
E:2-2-2-2-2---2-----2-2-2-2-----0----|

	Gypsy ...
E:---------------------------------|
B:---------------------------------|
G:-3---------------------------3---|
D:-3-------------2-------------3---|
A:-1-------------0-------------1---|
E:---------------------------------|


E:-------------------------------------|
B:-------------------------------------|
G:-----7--9----------------------------|
D:-----7--9--------2-2-0-5-2-----------|
A:-----5--7------------------3-3-2-3-5-|
E:-----------3-3-0---------------------|

E:-------------------------------------|
B:-------------------------------------|
G:-----7--9----------------------------|
D:-----7--9--------2-2-0-5-2-----------|
A:-----5--7------------------3-3-2-3-5-|
E:-----------3-3-0---------------------|

E:-------------------------------------|
B:-------------------------------------|
G:-----7--9----------------------------|
D:-----7--9--------2-2-0-5-2-----------|
A:-----5--7------------------3-3-2-3-5-|
E:-----------3-3-0---------------------|

E:-------------------------------------|
B:-------------------------------------|
G:-----7--9----------------------------|
D:-----7--9--------2-2-0-5-2-----------|
A:-----5--7------------------3-3-2-3-5-|
E:-----------3-3-0---------------------|

¨Oh my Son         you ...
E:---------------------------------|
B:---------------------------------|
G:-3---------------------------3---|
D:-3-------------2-------------3---|
A:-1-------------0-------------1---|
E:---------------------------------|

E:-----------------------------------|
B:-----------------------------------|
G:-----------------------------------|
D:----------4---5------------2-------|
A:---------------------------0--2----|
E:2-2-2-2-2---2-----2-2-2-2-----0----|

 You are the Devil’s ...
E:-----------------------------------|
B:-----------------------------------|
G:-3-----------------------------3---|
D:-3-------------2---------------3---|
A:-1-------------0---------------1---|
E:-----------------------------------|


Solo: M.D.   Solo: H.S.
                                          //
E:--------------------------(----(-(----------|
B:----------------H--------8---10----8---8----|
G:--(-----(----(-5-7/9--/9---9---------9---9--|
D:-5---5-7--5-7-------------------------------|
A:---7----------------------------------------|
E:--------------------------------------------|

E:/12-15-12-15-12---12--------12-15-12-15-12--|
B:----------------15---//--//---------------15|
G:--------------------------------------------|
D:--------------------------------------------|
A:--------------------------------------------|
E:--------------------------------------------|

E:12---(-(------------------------------------|
B:---15----13-15-13-12-13-12-13---(-----------|
G:------------------------------14--12-14-12--|
D:--------------------------------------------|
A:--------------------------------------------|
E:--------------------------------------------|
                    A.H
E:---------------------------------------------|
B:---------------------------------------------|
G:11-12-14-12-11-12----9-7---------------------|
D:------------------14----10-9-7----------(----|
A:------------------------------10-9-7-10---7-9|
E:---------------------------------------------|

E:-----------------------------------------|
B:-----------------------------------------|
G:6-6/76-6/7-7/107-1076/764-3/43/4--|
D:----------------------------------------4|
A:4-4/54-4/5-5-/75--754/542-1/21/2--|
E:----------------------------------------2|

E:------------(-(---H---------------------H---|
B:-H---9-10-12----10-12--12-10-12-10-12-10-12-|
G:9-11----------------------------------------|
D:--------------------------------------------|
A:--------------------------------------------|
E:--------------------------------------------|

                ( )   H              H
E:------------12-----9-10-9-10-9-10-9-10-9-10-|
B:10-12-10-12---------------------------------|
G:--------------------------------------------|
D:--------------------------------------------|
A:--------------------------------------------|
E:--------------------------------------------|

E:9-10----------------------------------------|
B:-------(-------------------(--(--(------//|
G:-----11--9-------------9-11-11-11--9-11-----|
D:----------9-11-9--9-11----------------------|
A:----------------11--------------------------|
E:--------------------------------------------|

E:----------H--H-----H--H-----------H-P-------|
B:--H--H--11-12-14-14-16-17-7-9-10-7-9-7---7--|
G:13-15-17-------------------------------9----|
D:--------------------------------------------|
A:--------------------------------------------|
E:--------------------------------------------|

E:-(--H---(-(-(-------------------------------|
B:---7-9-7-7-7--------------------------------|
G:9-------------///------------------------|
D:-------------8------------------------------|
A:--------------------------------------------|
E:--------------------------------------------|

E:------------------------------|
B:------------------------------|
G:---------------------7---6----|
D:--------4---5--------7---6----|
A:---------------------5---4----|
E:2-2-2-2---2---2-2-2-----------|

Gypsy now I know ...
E:-----------------------------------|
B:-----------------------------------|
G:-----------------------------------|
D:----------4---5------------2-------|
A:---------------------------0--2----|
E:2-2-2-2-2---2-----2-2-2-2-----0----|


You are a Part of my Soul...
      to see
E:------------------------------|
B:------------------------------|
G:---------------------7---6----|
D:--------4---5--------7---6----|
A:---------------------5---4----|
E:2-2-2-2---2---2-2-2-----------|

        Oh No No No,
E:--------------------------------|
B:--------------------------------|
G:-5-4----------------------------|
D:-5-4----------------------------|
A:-3-2----------------------------|
E:--------------------------------|
       I am you
E:--------------------------------|
B:--------------------------------|
G:-5-4----------------------------|
D:-5-4----------------------------|
A:-3-2----------------------------|
E:--------------------------------|

E:--------------------------------|
B:--------------------------------|
G:-5-4----------------------------|
D:-5-4----------------------------|
A:-3-2----------------------------|
E:--------------------------------|

Gypsy ...
E:-----------------------------|
B:-----------------------------|
G:-----------------------------|
D:------H-P-------------4------|
A:-2-3-2-3-2------------4------|
E:-----------5-3-0------2------|

Almost there ...

Sign in to get your own page with links to favourite songs and more. You are just one click away...

Login with Facebook Login with Google