Log in

One click and you are in

Login with Facebook Login with Google

Why sign up and log in

Guitar Tabs Explorer
Mercyful Fate tabs for Angel of light

Guitar tabs with lyrics

@SONG: Angel Of Light (Diamond)

I have seen Him ...
Chorus:
Oh I believe...


Chorus


Solo: S

I will make a second deal ...


solo: A chord diagramD MajorD

Shine in all your glory, shin....


Chorus


"Angle of Light" from the album "Time" by "Mercyful Fate".


Music: King Diamond.
Transcription: K. Serkan Gunturk

Riff 1
E-|---------------------------------------------------------------------------|
B-|---------------------------------------------------------------------------|
G-|---------------------------------------------------------------------------|
D-|---------------------------------------------------------------------------|
A-|-----4---3---3-2---4-5-------4---3---3-2---4-------------------------------|
E-|-2-2---2---2-----5-2-----2-2---2---2-----5-2-------------------------------|


E-|---------------------------------------------------------------------------|
B-|---------------------------------------------------------------------------|
G-|---------------------------------------------------------------------------|
D-|---------------------------------------------------------------------------|
A-|-----2---1---1-0---2-3-----2---1---1-0---2-2-5-----------------------------|
E-|-0-0---0---0-----3-0---0-0---0---0-----3-0-0-3-----------------------------|


Riff 2 (2 times)
E-|---------------------------------------------------------------------------|
B-|---------------------------------------------------------------------------|
G-|---------------------------------------------------------------------------|
D-|-----4---------------------4-------------5---------------------------------|
A-|-4-----4-------------2-4-----4-----------3---------------------------------|
E-|-2-2---2-0-2-2-2-2-5-0-2-2---2-0-2-2-2-2-----------------------------------|


Riff 3
E-|---------------------------------------------------------------------------|
B-|---------------------------------------------------------------------------|
G-|-4-----4-----4/7-----7-----------5-5-5-5-5---------------------------------|
D-|-4-----4-----4/7-----7-7-7-----7-5-5-5-5-5---------------------------------|
A-|-2-2-2-2-2-2-2/5-5-5-5-7-7-----7-3-3-3-3-3---------------------------------|
E-|-----------------------5-5-5-5-5-------------------------------------------|


E-|---------------------------------------------------------------------------|
B-|---------------------------------------------------------------------------|
G-|-4-----4-----4/7-----7-----------------------------------------------------|
D-|-4-----4-----4/7-----7-7-7-----7-5-5-4-5-4---------------------------------|
A-|-2-2-2-2-2-2-2/5-5-5-5-7-7-----7-3-3-2-3-2-2-2-2---------------------------|
E-|-----------------------5-5-5-5-5-----------0-0-0---------------------------|


E-|---------------------------------------------------------------------------|
B-|---------------------------------------------------------------------------|
G-|---------------------------------------------------------------------------|
D-|-4-4-2-4-2-----2-----------------------------------------------------------|
A-|-2-2-0-2-0-5-4-2-----------------------------------------------------------|
E-|-----------3-2-2-...----lucifer!-------------------------------------------|


Now repeat riffs 1,2 and 3.

Here comes the first solo played over this:


Riff 4
E-|---------------------------------------------------------------------------|
B-|---------------------------------------------------------------------------|
G-|---------------------------------------------------------------------------|
D-|---------------------------------------------------------------------------|
A-|-2-4-4-4-4-4-4-7-9-2-4-4-4-4-4---------------------------------------------|
E-|-0-2-2-2-2-2-2-5-7-0-2-2-2-2-2---------------------------------------------|


Riff 5
E-|---------------------------------------------------------------------------|
B-|---------------------------------------------------------------------------|
G-|---------------------------------------------------------------------------|
D-|---------------------------------------------------------------------------|
A-|-2-4-4-4-4-4-4-7-9-2-4-4-4-------------------------------------------------|
E-|-0-2-2-2-2-2-2-5-7-0-2-2-2-2-2-2-2-3-3-3-3---------------------------------|


Riff 6
E-|---------------------------------------------------------------------------|
B-|---------------------------------------------------------------------------|
G-|---------------------------------------------------------------------------|
D-|---------------------------------------------------------------------------|
A-|-2-2-2-2-2-2-2-5-7-2-2-2-2-------------------------------------------------|
E-|-0-0-0-0-0-0-0-3-5-0-0-0-0-0-0-0-0-1-1-1-1---------------------------------|

Now play riff 5 again and the solo is over.


Riff 7 (2 times)
E-|---------------------------------------------------------------------------|
B-|---------------------------------------------------------------------------|
G-|---------------------------------------------------------------------------|
D-|---10-9-7-7-8-7------10-9-7-7-9-10-----------------------------------------|
A-|-7--------------10-7-------------------------------------------------------|
E-|-0-----------------0-------------------------------------------------------|


Riff 8 (2 times)
E-|---------------------------------------------------------------------------|
B-|---------------------------------------------------------------------------|
G-|---------------------------------------------------------------------------|
D-|-2-2-2-5/7-7-5\2-2---------------------------------------------------------|
A-|-2-2-2-5/7-7-5\2-2-7-5-7-5-4-5---------------------------------------------|
E-|-0-0-0-----5-----0-5-3-5-3-2-3---------------------------------------------|


The second solo is played over this:


Riff 9
E-|---------------------------------------------------------------------------|
B-|---------------------------------------------------------------------------|
G-|---------------------------------------------------------------------------|
D-|-2/4-4-4/9-9-7\4-4---------------------------------------------------------|
A-|-2/4-4-4/9-9-7\4-4-9-7-9-7-6-7---------------------------------------------|
E-|-0---2-2/7-7-----2-7-5-7-5-4-5---------------------------------------------|


Play riff 8 once and the solo is over.

Play riff 7 twice.

Play riff 1,2 and 3 for the last time.




For suggestions and corrections or anything email me at


gunturkk@boun.edu.tr

gunturkk@boun.edu.tr

Almost there ...

Sign in to get your own page with links to favourite songs and more. You are just one click away...

Login with Facebook Login with Google