Log in

One click and you are in

Login with Facebook Login with Google

Why sign up and log in

Guitar Tabs Explorer
Mercyful Fate tabs for A dangerous meeting

Guitar tabs with lyrics

BY: MERCYFUL FATE
SONG: A chord diagramA augmentedA DANGEROUS MEETING
ALBUM: DON'T BREAK THE OATH
TRANSCRIPTION: "EVIL" STEF
CONVERSION TO TEXT: JASON MINIACI

e-|--------------|-----------------|-----------------|
B-|--------------|-----------------|-----------------|
G-|--------------|-----------------|-----------------|
D-|--------------|-----------------|-----------------|
A-|--------------|-----------------|-----------------|
E-|-12\----------|-0-0-0-0-0-0-0-0-|-0-0-0-0-0-0-0-0-|
        long slide
e-|-----------------|---------------|--------------|
B-|-----------------|---------------|--------------|
G-|-----------------|---------------|--------------|
D-|-----------------|---------------|---------4~~~-|
A-|-----------------|---------------|---------5----|
E-|-0-0-0-0-0-0-0-0-|--0-0-0-0-3~~~-|-0-0-0-0------|
                    |1.             |2.
e-|--------------------------------------|---------------|---|
B-|--------------------------------------|---------------|---|
G-|--------------------------------------|---------------|---|
D-|--9-7---------7-6--------12-11--------|-14-12---------|-7-|
A-|--7-5---------5-4--------10-9---------|-12-10---------|-5-|
E-|------0-0-0-0-----0-0-0-0-----0-0-0-0-|-------0-0-0-0-|---|
                                         |1.             |2.


Main Riff:(play 3 times under solo)
e-|---------------------|-------------------------------------|
B-|---------------------|-------------------------------------|
G-|-----------------0-0-|-------------------------------------|
D-|-2-----2-----2---0-0-|-2-----2-----2-----------------------|
A-|-2-----2-----2---x-x-|-2-----2-----2---------0-2-3-2-0-----|
E-|-0-0-0-0-0-0-0-0-3-3-|-0-0-0-0-0-0-0-0-3-2-3---------------|
      ' '   ' '   '         ' '   ' '   ' ' ' ' ' ' ' ' '

   (Play 4 times with lyrics)
e-|---------------------|-------------------------------------|
B-|---------------------|-------------------------------------|
G-|-----------------0-0-|-------------------------------------|
D-|-2-----2-----2---0-0-|-2-----2-----2-----------------------|
A-|-2-----2-----2---x-x-|-2-----2-----2---------0-2-3-2-0-----|
E-|-0-0-0-0-0-0-0-0-3-3-|-0-0-0-0-0-0-0-0-3-2-3---------------|
      ' '   ' '   '         ' '   ' '   ' ' ' ' ' ' ' ' '
    Tonight   the    Circle is  ...

e-|--------------------------------------|---------------|---|
B-|--------------------------------------|---------------|---|
G-|--------------------------------------|---------------|---|
D-|--9-7---------7-6--------12-11--------|-14-12---------|-7-|
A-|--7-5---------5-4--------10-9---------|-12-10---------|-5-|
E-|------0-0-0-0-----0-0-0-0-----0-0-0-0-|-------0-0-0-0-|---|
                                         |1.             |2.

   (Play 4 times with lyrics)
e-|---------------------|-------------------------------------|
B-|---------------------|-------------------------------------|
G-|-----------------0-0-|-------------------------------------|
D-|-2-----2-----2---0-0-|-2-----2-----2-----------------------|
A-|-2-----2-----2---x-x-|-2-----2-----2---------0-2-3-2-0-----|
E-|-0-0-0-0-0-0-0-0-3-3-|-0-0-0-0-0-0-0-0-3-2-3---------------|
      ' '   ' '   '         ' '   ' '   ' ' ' ' ' ' ' ' '
    So as    they're  approaching  ...

e-|-{Guitar-1}-------|-------|---------------------|-----------|
B-|------------------|-------|---------------------|-----------|
G-|-5----------------|-2-----|-----------5---------|--7--------|
D-|-5----------------|-2-----|--5--------5---------|--7--------|
A-|-3----------------|-0-----|--5--------3---------|--5--------|
E-|------------------|-------|--3------------------|-----------|
  | Time is standing still It's ...
e-|-{guitar-2}-{pinch harmonics on all notes}----|------------|
B-|-----------------|-----------|---------8~-7-8-|-7~~-7------|
G-|-4-5~~-4h5p4-----|-4-5p4--4-5|-----7~~--------|--------8~~-|
D-|-------------7-5-|------7----|-5~~------------|------------|
A-|-----------------|-----------|----------------|------------|
E-|-----------------|-----------|----------------|------------|


e-|----------------------------------------------------|
B-|----------------------------------------------------|
G-|-7----9----7------9----9----7----9------------------|
D-|-7----9----7------9----9----7----9------------------|
A-|-5----7----5------7----7----5----7------------------|
E-|----------------------------------------------------|
   They're gonna get ...




 rythm under solo (4x)
e-|------------------------------------------|-----------------|
B-|------------------------------------------|-----------------|
G-|--9--9--7--9------------------------------|-----------------|
D-|--9--9--7--9---------9----10-----7-7---5--|--10-9-9--7-9-7--|
A-|--7--7--5--7---------9----10-----7-7---5--|--10-9-9--5-7-5--|
E-|-------------0-0-0-0-7-0-0-8-0-0-5-5-0-3--|---8-7-7---------|
                ' ' ' '   ' '   ' '     '    |1.,2.,3.  ' ' '

e-|----------------------|---------------|
B-|----------------------|---------------|
G-|----------------------|---------------|
D-|-10-9-----------------|--2p0----------|
A-|-10-9-9-9-9-9-9-9-9-9-|------2p0------|
E-|--8-7-7-7-7-7-7-7-7-7-|----------2p0--|
  |4.    ' ' ' ' ' ' ' '

e-|-------------------------------------------------------------|
B-|-------------------------------------------------------------|
G-|-------------------------------------------------------------|
D-|--9-7-------7-6--------12-11-------14-12-------9-7------7-6--|
A-|--7-5-------5-4--------10-9--------12-10-------7-5------5-4--|
E-|------0-0---------0-0--------0-0----------0-0-------0-0------|


e-|----3p0-----------------------|------------------------------|
B-|--------3-3h5p3h5p3h5-(trill)-|-10-8-------------------------|
G-|------------------------------|------9-8-7-------------------|
D-|------------------------------|------------9-5---------------|
A-|------------------------------|----------------7-6-5---------|
E-|-5~~--------------------------|----------------------7-6-5-3-|
  |1.                            |2.                    ' ' ' '

e-|---------------------------------|-----------------------|
B-|---------------------------------|-----------------------|
G-|-----------------0-----------0-0-|-----------------------|
D-|-2-----2-----2---0-----------0-0-|-2-----2-----2---------|
A-|-2-----2-----2---x--x-x-x-x--x-x-|-2-----2-----2---------|
E-|-0-0-0-0-0-0-0-0-3--x-x-x-x--3-3-|-0-0-0-0-0-0-0--3-2-3--|
      ' '   ' '   '                     ' '   ' '

e-|----------------|
B-|----------------|
G-|----------------|
D-|----------------|
A-|-0-2-3-2--------|
E-|---------3-2-0--|


e-|---------------------|-------------------------------------|
B-|---------------------|-------------------------------------|
G-|-----------------0-0-|-------------------------------------|
D-|-2-----2-----2---0-0-|-2-----2-----2-----------------------|
A-|-2-----2-----2---x-x-|-2-----2-----2---------0-2-3-2-0-----|
E-|-0-0-0-0-0-0-0-0-3-3-|-0-0-0-0-0-0-0-0-3-2-3---------------|
      ' '   ' '   '         ' '   ' '   ' ' ' ' ' ' ' ' '
    Tonight    the    Circle   is    ...

e-|-{Guitar-1}-------|-------|---------------------|-----------|
B-|------------------|-------|---------------------|-----------|
G-|-5----------------|-2-----|-----------5---------|--7--------|
D-|-5----------------|-2-----|--5--------5---------|--7--------|
A-|-3----------------|-0-----|--5--------3---------|--5--------|
E-|------------------|-------|--3------------------|-----------|
  | Time is standing still    ...
e-|-{guitar-2}-{pinch harmonics on all notes}----|------------|
B-|-----------------|-----------|---------8~-7-8-|-7~~-7------|
G-|-4-5~~-4h5p4-----|-4-5p4--4-5|-----7~~--------|--------8~~-|
D-|-------------7-5-|------7----|-5~~------------|------------|
A-|-----------------|-----------|----------------|------------|
E-|-----------------|-----------|----------------|------------|


e-|--------------|----------------------(2 times)-|
B-|--------------|--------------------------------|
G-|-(7)-4-4-4-4--|--------------------------------|
D-|-(7)-4-4-4-4--|--------------------------------|
A-|-(5)-2-2-2-2--|---2-0----------7p5---7--10-----|
E-|--------------|-0-----3-0-3~~0-----7-5-0-8-----|
        ' ' ' '                           '
   ...Their Journey is on (noise........)

e-|---(3 times)-----------------------|------------------------|
B-|-----------------------------------|------------------------|
G-|-----------------------------------|------------------------|
D-|------5------4------5-------5------|------5-----4-4---------|
A-|------7------5------7-7p5----------|------7-----5-5-----3-0-|
E-|-0-0-0--0-0-0--0-0-0------7---3~~0-|-0-0-0-0-0-0---3-4-5----|





e-|-----------------------------------|
B-|-----------------------------------|
G-|------------------------------2--2-|
D-|-------5-------4-4------------3--3-|
A-|-------7-------5-5-------3-0-------|
E-|-0-0-0---0-0-0-----3-4-5-----------|

e-|-(play 4x)-----------------|-----------|---------------------|
B-|---------------------------|-----------|---------------------|
G-|---------------------------|-----------|---------------------|
D-|---------------------------|-----------|---------------------|
A-|--------7-------7-------7--|-7p5-------|---------------------|
E-|--0-0-0---0-0-0---0-0-0----|-----7-6-5-|---5--7-7-7-7--5--3--|
     ' ' '   ' ' '   ' ' '    |1.         |2. '  ' ' ' '  '  '
   Oh, they should have...

e-|--(play 2x)-------------------|------------------------------|
B-|------------------------------|------------------------------|
G-|----------2--4--------------4-|----------2--4-----------5--4-|
D-|-2--4--5--2--4--2--2--4--5--4-|-2--4--5--2--4--2--2--4--5--4-|
A-|-2--4--5--0--2--2--2--4--5--2-|-2--4--5--0--2--2--2--4--3--2-|
E-|-0--2--3--------0--0--2--3----|-0--2--3--------0--0--2-------|


e-|---------------------|-------------------------------------|
B-|---------------------|-------------------------------------|
G-|-----------------0-0-|-------------------------------------|
D-|-2-----2-----2---0-0-|-2-----2-----2-----------------------|
A-|-2-----2-----2---x-x-|-2-----2-----2---------0-2-3-2-0-----|
E-|-0-0-0-0-0-0-0-0-3-3-|-0-0-0-0-0-0-0-0-3-2-3---------------|
      ' '   ' '   '         ' '   ' '   ' ' ' ' ' ' ' ' '

e-|---------------------|-------------------------------------|
B-|---------------------|-------------------------------------|
G-|-----------------0-0-|-------------------------------------|
D-|-2-----2-----2---0-0-|-2-----2-----2-----------------------|
A-|-2-----2-----2---x-x-|-2-----2-----2---------0-2-3-2-0-----|
E-|-0-0-0-0-0-0-0-0-3-3-|-0-0-0-0-0-0-0-0-3-2-3---------------|
      ' '   ' '   '         ' '   ' '   ' ' ' ' ' ' ' ' '
     Some    People   have    lost    ....





e-|-----------------------------------|----------------------|
B-|-----------------------------------|----------------------|
G-|-------------------------2-4-5-4-2-|-5--4--2-(guitar-1)---|
D-|--------2-4-5-4-2-5-4-5--0-2-3-2-0-|-7--5--4-(guitar-2)---|
A-|-5-4-5--0-2-3-2-0-3-2-3------------|----------------------|
E-|-3-2-3-----------------------------|----------------------|
  ..their mind

e-|----------------------------|
B-|----------------------------|
G-|--5--4--2-------------------|
D-|--3--2--0---5--4--2---------|
A-|------------3--2--0---5--2--|
E-|----------------------3--0--|


a big huge thanks goes to "EVIL" STEF from Montreal, this would have not
been possible with out his transciption,

THANKS STEF


also if any one has the lead solos for this song or any other mf or kd
songs let me know i will either trade or buy it from you,i have a huge
collection of rare mercyful fate and king diamond recording that i can
trade. thanks

my e-mail    pminiaci@penn.com

Almost there ...

Sign in to get your own page with links to favourite songs and more. You are just one click away...

Login with Facebook Login with Google