GuitarTabsExplorer icon
GuitarTabsExplorer icon

Log in

Songbook

  • Log in to add and see bookmarks

Last visited songs

    No songs visited yet...

A Dangerous Meeting by Mercyful Fate

Bass tabs

Tuning: Standard (E A D G)

Intro:

G|-----------------------------| x2
D|---------------------------5-|
A|--------------------------7--|
E|00-00-00-00-5-3-00-00-00-0---|

G|-------|
D|-------|
A|-------|
E|0-33-0-|


Verse:

G|------------------------------------------------------|
D|------------------------------------------------------|
A|--------0-2-3-2-0---------------------------0-2-3-2-0-|
E|-3-2-3-------------0-00-00-33-0-00-00-3-2-3-----------|

G|------------------------------------| x5
D|------------------------------------|
A|--------------------------0-2-3-2-0-|
E|-0-00-00-33-0-00-00-3-2-3-----------|

G|-----------------------------| x2
D|---------------------------5-|
A|--------------------------7--|
E|00-00-00-00-5-3-00-00-00-0---|

G|------------------------------------| x4
D|------------------------------------|
A|--------------------------0-2-3-2-0-|
E|-0-00-00-33-0-00-00-3-2-3-----------|


Chorus:

G|-------------------------------------------------|
D|--------5-2----------------5---------------------|
A|3--2-33----5-3------------5-3-5-2--5-7-5-777-5-7-|
E|--------------5--3-55---3------------------------|


Solo:

G|--------------------------------------| x4
D|--------------------------------------|
A|5-7-5-777-5-7-----22-33-----------3-2-|
E|-------------00000-----00-5-00-333----|

G|-----------------------------| x2
D|---------------------------5-|
A|--------------------------7--|
E|00-00-00-00-5-3-00-00-00-0---|
Verse:

G|------------------------------------------|
D|------------------------------------------|
A|---------------------------0-2-3-2-0------|
E|-0-00-00-33---33-0-00-3-2-3---------3-2-1-|

G|------------------------------------| x4
D|------------------------------------|
A|--------------------------0-2-3-2-0-|
E|-0-00-00-33-0-00-00-3-2-3-----------|


Chorus:

G|-----------------------------------|
D|--------5-2----------------5-------|
A|3--2-33----5-3------------5-3-5-2--|
E|--------------5--3-55---3----------|

G|-------------------------------------------| x2
D|-------------------------------------------|
A|777777777777777777-555-7777777777777--5--5-|
E|------------------------------------0--0---|

G|--------------------------|
D|---------------55---------|
A|---7----5----7---7-5-6-7--|
E|000--000--000-------------|


G|-----------------------------|
D|-----------------------------|
A|---7----5--5-6-7-----4-5-6-8-|
E|000--000--------3-4-5--------|

G|-------------------------|
D|---------------55--------|
A|---7----7----7---7-5-6-7-|
E|000--000--000------------|


G|-----------------------------|
D|-----------------------------|
A|---------0--2--------------2-|
E|0--2--3--------0--0--2--3----|

G|------------------------------|
D|------------------------------|
A|---------0--2-----------3--2--|
E|0--2--3--------0--0--2--------|


Verse:

G|------------------------------------| x4
D|------------------------------------|
A|--------------------------0-2-3-2-0-|
E|-0-00-00-33-0-00-00-3-2-3-----------|

G|------------------------------------|
D|-----------------------0-2-3-2-0------------3-2-0---------|
A|------0-2-3-2-0--3-2-3---------------------------3-2-0----|
E|3-2-3-------------------------------------------------3-0-|

[ Privacy | About us ]

Welcome to the guitar community

Why join and log in?
- Get songbook with favourite songs
- Get custom made front page
- Submit chords and tabs
- Submit guitar-cover videos
- Get a lot of thumbs up for your work

Songbook

Last visited songs

Site
Home
Search
Community
Submit chords

Video

No video for this page. Check out how you can submit guitar-cover videos here

Search tabs and chords

Browse by artist

A B C D E F G H I J K L M N O P Q R S T U V W X Y Z #


Menu

Search

Video

Bookmark

Login