Log in

One click and you are in

Login with Facebook Login with Google

Why sign up and log in

Guitar Tabs Explorer
Natalie Merchant bass tabs for Where i go

Bass tabs with lyrics

Intro:

G|--------------------1------------------------------------------------------|
D|---------------------------------------------------------------------------|
A|-2-------------------------------------------------------------------------|
E|-----------------------------------------------0------------------0--------|

G|--------------------1------------------------------------------------------|
D|---------------------------------------------------------------------------|
A|-2-------------------------------------------------------------------------|
E|-----------------------------------------------0------------------0--------|

Verse 1:

G|--------------------1------------------------------------------------------|
D|---------------------------------------------------------------------------|
A|-2-------------------------------------------------------------------------|
E|-----------------------------------------------0------------------0--------|
 climbing       barbed          raiload       ties

G|--------------------1------------------------------------------------------|
D|---------------------------------------------------------------------------|
A|-2-------------------------------------------------------------------------|
E|-----------------------------------------------0------------------0--------|
 climbing      old stone wall       bound        side

Well I


1st Chorus:

G|---------------------------------------------------------------------------|
D|---------------------------------------------------------------------------|
A|-------------------------------------------------------------------------2~|
E|-2--------0----------2------------0-----------2------------0---------------|
 go    soothe    ponder  crazy     life    sit      flow

G|--------------------1------------------------------------------------------|
D|---------------------------------------------------------------------------|
A|-------------------------------------------------------------------------2-|
E|~~~~~~~~~~~~~~~~~~~----------------------------0---------------------------|

G|--------------------1------------------------------------------------------|
D|---------------------------------------------------------------------------|
A|-2-----------------------------------------------------------------------0-|
E|-----------------------------------------------0---------------------------|


Verse 2:

G|--------------------1------------------------------------------------------|
D|---------------------------------------------------------------------------|
A|-2-------------------------------------------------------------------------|
E|-----------------------------------------------0------------------0--------|
 Find       riverbank          green       grow

G|--------------------1------------------------------------------------------|
D|---------------------------------------------------------------------------|
A|-2-------------------------------------------------------------------------|
E|-----------------------------------------------0------------------0--------|
  wind       tree            branches      low


2nd Chorus:

G|-------------------------------------------------------------------------1-|
D|---------------------------------------------------------------------------|
A|---------------------------------------------------------------------------|
E|-2--------0----------2------------0-----------2------------0---------------|
  go    soothe    ponder   these    life     watch   flow

G|---------------------------------------------------------------------------|
D|---------------------------------------------------------------------------|
A|-------------------------------------------------------------------------2-|
E|---------------------0~~~~~~~~~~~~~~~~~~~----------------------------------|
            mind                        go

G|--------------------1------------------------------------------------------|
D|---------------------------------------------------------------------------|
A|---------------------------------------------------------------------------|
E|~~~~~~~~~~~~~~~~~~~----------------------------0-------------------0-------|

G|--------------------1------------------------------------------------------|
D|---------------------------------------------------------------------------|
A|-2-------------------------------------------------------------------------|
E|-----------------------------------------------0------------------0--------|
3rd Chorus:

G|-------------------------------------------------------------------------1-|
D|---------------------------------------------------------------------------|
A|---------------------------------------------------------------------------|
E|-2--------0----------2------------0-----------2------------0---------------|
  go    time to   wander   these    mind    watch    flow

G|------------------------------------1~~~~~~~~~-----------------------------|
D|---------------------------------------------------------------------------|
A|---------------------------------------------------------------------------|
E|--------------------0~~~~~~~~~-------------------------0~~~~~~~~~~~~~~~----|
          grow       cool


Bridge:

G|---------------------------------------------------------------------------|
D|---------------------------------------------------------------------------|
A|--4-------2----------------4----------4-----------4------------------------|
E|----------------------4---------2---------2------------------2-------------|
 ooooo   love  lovely   way   the  hurry  trouble  worry

G|-------------------------------------------------------------------------1-|
D|---------------------------------------------------------------------------|
A|--4------------------------------------------------------------------------|
E|-------2------0--------2---0-------2----0--------0-------------------------|
     way   flow away  flow away


Outro:

G|--------------1----------------------------------------------------------1-|
D|---------------------------------------------------------------------------|
A|-----------------------4---------------------------------------------------|
E|---0--------------------------2--------0------2------0-----------0---------|

G|-------------1-------------------------------------------------------------|
D|---------------------------------------------------------------------------|
A|---------------------------------2-----------------------------------------|
E|---0-------------------0---------------------------------------------------|

Almost there ...

Sign in to get your own page with links to favourite songs and more. You are just one click away...

Login with Facebook Login with Google