Log in

One click and you are in

Login with Facebook Login with Google

Why sign up and log in

Guitar Tabs Explorer
Natalie Merchant chords for Gulf of araby

Guitar chords with lyrics

Transcriber's Name: Rowena Regala

This song was originally performed and written by Katell Keineg, and became
quite popular in 1999 by Natalie Merchant, for her "Live in Concert NYC"
album. If you are interested more on Keineg's work, please refer to website:
http://users.rcn.com/samlambert//katell/katell.html

And if your curious which album this great song came from, it is as follows:

Album Title: ô Seasons ô Castles
Record Label: Elektra
Catalog #: 61657
Year: 1994
Track #: 14
Other Info: debut album in the US

All my efforts to learn this song came from listening to Miss Merchant's
live album. Gabriel Gordon's guitar style is superb, and worth recognition.
He did not use any capo, and began the song with the simple tab below. It
took me a while to get this tune right, so if you feel it isn't please
provide as much criticism as possible. I'm open for open discussion. My
email address is: tenkmrcool@hotmail.com
----------------------------------------------------------------------

THE GULF OF ARABY


INTRO
-----------------------------------3--3--3--3--3
--3--2--3--5--3--2--2--3--5--3--2--3--3--3--3--3
------------------------------------------------
------------------------------------------------
------------------------------------------------
------------------------------------------------

3----------------------------------3--3--3--3--3
--3--3--2--5--3--2--2--3--5--3--2--3--3--3--3--3
------------------------------------------------
------------------------------------------------
------------------------------------------------
------------------------------------------------

(strum all chords for the last note)

------------------------------------------------

VERSE 1 & 2
A chord diagramD MajorD A chord diagramA augmentedA A chord diagramG+G x2

A chord diagramA augmentedA A chord diagramG+G x2

A chord diagramD MajorD A chord diagramA augmentedA A chord diagramG+G A chord diagramD MajorD

------------------------------------------------

A chord diagramD MajorD A chord diagramA augmentedA A chord diagramG+G X3


CHORUS
One man A chord diagramD MajorD A chord diagramA augmentedA
Two neighbor A chord diagramD MajorD A chord diagramG+G
Three tyrants A chord diagramD MajorD A chord diagramA augmentedA
Four prisoners A chord diagramD MajorD A chord diagramG+G
Five A chord diagramD MajorD
Six A chord diagramA augmentedA
And Seven A chord diagramG+G

The Gulf A chord diagramD MajorD
The Gulf A chord diagramA augmentedA
Of Araby A chord diagramG+G

-----------------------------------------------


VERSE 3
A chord diagramD MajorD A chord diagramA augmentedA A chord diagramG+G x2

A chord diagramA augmentedA A chord diagramG+G x2

A chord diagramD MajorD A chord diagramA augmentedA A chord diagramG+G A chord diagramD MajorD

------------------------------------------------

A chord diagramD MajorD A chord diagramA augmentedA A chord diagramG+G x3


CHORUS
One man A chord diagramD MajorD A chord diagramA augmentedA
Two neighbor A chord diagramD MajorD A chord diagramG+G
Three tyrants A chord diagramD MajorD A chord diagramA augmentedA
Four prisoners A chord diagramD MajorD A chord diagramG+G
Five A chord diagramD MajorD
Six A chord diagramA augmentedA
And Seven A chord diagramG+G

The Gulf A chord diagramD MajorD
The Gulf A chord diagramA augmentedA
Of Araby A chord diagramG+G

The Gulf A chord diagramD MajorD
The Gulf A chord diagramA augmentedA
Of Araby A chord diagramG+G

------------------------------------------------
(*End with the intro*)
------------------------------------------------


A chord diagramD MajorD CHORD
A chord diagramE MajorE --|--*--|--|
A chord diagramBB --|--|--*--|
A chord diagramG+G --|--*--|--|
A chord diagramD MajorD --|--|--|--|
A chord diagramA augmentedA --|--|--|--|
A chord diagramE MajorE --|--|--|--|

A chord diagramA augmentedA CHORD
A chord diagramE MajorE --|--|--|--|
A chord diagramBB --|--*--|--|
A chord diagramG+G --|--*--|--|
A chord diagramD MajorD --|--*--|--|
A chord diagramA augmentedA --|--|--|--|
A chord diagramE MajorE --|--|--|--|

A chord diagramG+G CHORD
A chord diagramE MajorE --|--|--*--|
A chord diagramBB --|--|--|--|
A chord diagramG+G --|--|--|--|
A chord diagramD MajorD --|--|--|--|
A chord diagramA augmentedA --|--*--|--|
A chord diagramE MajorE --|--|--*--|

Almost there ...

Sign in to get your own page with links to favourite songs and more. You are just one click away...

Login with Facebook Login with Google