Log in

One click and you are in

Login with Facebook Login with Google

Why sign up and log in

Guitar Tabs Explorer
Natalie Merchant bass tabs for Carnival

Bass tabs

- "Carnival"  -by-  "Natalie Merchant" -
Bass guitar tab

Ok this is a song that you ARE NOT supposed to play the
same every time. And in keeping in such, I'm not tabbing
it verbatim. These are the BASIC notes. AT the bottom,
I tossed in some of the change ups but for GOD SAKE
DO NOT play it the same every time. This song is a
masterpiece of downright FUN blues if you change around.
 Intro:
G--------------------------------------------------------
D--------------------------------------------------------
A--------------------------------------------------------
E-2-2-2---WITH A LOT OF YOUR OWN CHANGE UPS!--------------

 Main:
G--------------------------------------------------------
D--------------------------------------------------------
A-----------------------------5-5-5--5-5-5---------------
E-2-2-2--2-2-2--0-0-0--0-0-0----------------2-2-2--2-2-2-


 Chorus:
G-------2--------2----------------------------------------
D---0-2------0-2----2-4-0-2---2-4-0-2---2---0-2---2---0-2-
A-4--------4------------------------------4---------4-----
E---------------------------------------------------------


 Variations on the change ups ....
 Main:
G-------------------------------------------------------------------
D---------------------------------------------------4-2-------------
A------2-4------2-4---------------2-3-5-5-5-7-5-5-5-----------------
E-2-2-2----2-2-2----5-0-0-0--0-0-0----------------------2-2-2--2-2-2


G---------------------------------------------------------------------
D--------2h42-------------------------------4-2--------2-4------------
A------24----------4-2--------------2--0-0-0---4-0-0-0----------------
E-2-2-2------2-2-2----4-0-0-0--0-0-0----------------------2-2-2--2-2-2

 Chorus Lead In Variation:
G---------------------------2--------2-------------
D--------------4-2------0-2------0-2---------------
A-----------------4-2-4--------4--------And So On--
E-2-2-2--2-2-2-------------------------------------


Originally Tab'd by: -Nyte-

ⓘ Bass guitar tab for 'Carnival' by Natalie Merchant, a female alternative rock artist from Jamestown, NY. Natalie Merchant was born in 1963.

Other versions of Carnival

Carnival (Ver. 2)Bass tabs

Almost there ...

Sign in to get your own page with links to favourite songs and more. You are just one click away...

Login with Facebook Login with Google