Log in

One click and you are in

Login with Facebook Login with Google

Why sign up and log in

Guitar Tabs Explorer
Mental As Anything bass tabs for The nips are getting bigger

The Nips Are Getting Bigger bass tab by Mental As Anything

Mental As Anything bass tabs for The nips are getting bigger

Bass tabs with lyrics

Album: Best of Mental As Anything
Tabbed by: Frank Lawton

Check the CD for timings

 Riff 1

G|--------11----9-------7---------------------------------7------|
D|----------------------------9---10----10------10--10-----------|
A|10--------------------------------------7-----------7-------9--|
E|---------------------------------------------------------------|
Riff 2

G|--------------------------------------------------------------|
D|--------------12---10-10-10-10-10-10-10--12-12----------------|
A|10---10-­-10----10--------------------------------------------|
E|--------------------------------------------------------------|

                  Riff 3

G|---------------------------------------------------------------|
D|---------------------------------------------------------------|
A|10-10-­9-9­-7-7------------------------------------------------|
E|-----------------10-10­-8-8-1--8-8-1-8--10---------------------|
 Riff Patterns ~V You can vary it as you like after the first verse
!!
But this how the CD version goes:

Intro & Verse 1 ~V Riff 1

Chorus ~V Riff 2

Verse 2 ~V Riff 2

Chorus ~V Riff 3
Lead Break ~V Riff 2

Verse 3 ~V Riff 1

Chorus ~V Riff 3

Outro Riff 2


Regards
 ____  ____             | Frank Lawton
 ( `--' .-'       _T_T_T_T_ | PO Box 196
 |8| O O |||||||||||||||||||[o o o o/ | MONTROSE VIC 3765
 (__,--.____\        `~~~`--' | Australia

Mobile Ph: 0412 523 842
Foundation member of Bruce & The Defectors 2001 8-)

Almost there ...

Sign in to get your own page with links to favourite songs and more. You are just one click away...

Login with Facebook Login with Google