Log in

One click and you are in

Login with Facebook Login with Google

Why sign up and log in

Guitar Tabs Explorer
Mental As Anything bass tabs for If you leave me can i come too

If You Leave Me Can I Come Too bass tab by Mental As Anything

Mental As Anything bass tabs for If you leave me can i come too

Bass tabs with lyrics

Tuning: Standard (E A D G)

🎸 Intro:

G|5---------------|----------------|5---------------|----------------|
D|----7---5-------|5---------------|----7---5-------|5---------------|
A|------------7---|----7---5---7---|------------7---|----7---5---7---|
E|----------------|----------------|----------------|----------------|

G|5---------------|----------------|5---------------|----------------|
D|----7---5-------|5---------------|----7---5-------|5---7---8---9---|
A|------------7---|----7---5---7---|------------7---|----------------|
E|----------------|----------------|----------------|----------------|

🎸 Verse:

G|7---------------|----------------|7---------------|----------------|
D|----9---7-------|7---------------|----9---7-------|7---------------|
A|------------9---|----9---7---9---|------------9---|----9---7---9---|
E|----------------|----------------|----------------|----------------|
 Words were exchanged last night  You could call it a fight

G|7---------------|----------------|7---------------|----------------|----------------|
D|----9---7-------|7---------------|----9---7-------|7---------------|7---------------|
A|------------9---|----9---7---9---|------------9---|----9---7---9---|----9---7---9---|
E|----------------|----------------|----------------|----------------|----------------|
G|7---------------|----------------|----------------'|----------------|----------------|
 It's such a shame, never...would Wouldn't be so bad    If it weren't so good

G|7---------------|----------------|7---------------|----------------|
D|----9---7-------|7---------------|----9---7-------|7---------------|
A|------------9---|----9---7---9---|------------9---|----9---7---9---|
E|----------------|----------------|----------------|----------------|
  I've had enough of that     With other loves from days gone by

G|7---------------|----------------|7---------------|----------------|----------------|----------------|
D|----9---7-------|7---------------|----9---7-------|7---------------|7---------------|7---------------|
A|------------9---|----9---7---9---|------------9---|----9---7---9---|----9---7---9---|----9---7---9---|
E|----------------|----------------|----------------|----------------|----------------|----------------|
    It wasn't much I know      Just eno - ough   enough to make me cry

G|5---------------|----------------|5---------------|----------------|
D|----7---5-------|5---------------|----7---5-------|5---------------|
A|------------7---|----7---5---7---|------------7---|----7---5---7---|
E|----------------|----------------|----------------|----------------|
 If you leave me  can I come too?  We can always stay

G|5---------------|----------------|----------------|8---7-----------|--------5---8---|7---5---4-------|
D|----7---5-------|5---------------|--------7---10--|--------10--7---|6---8-----------|------------5---|
A|------------7---|----7---5---7---|8---10----------|----------------|----------------|----------------|
E|----------------|----------------|----------------|----------------|----------------|----------------|
But if you leave me ... and if you go           can I come too - oo - oo?

🎸 Solo:

G|5---------------|----------------|5---------------|----------------|
D|----7---5-------|5---------------|----7---5-------|5---------------|
A|------------7---|----7---5---7---|------------7---|----7---5---7---|
E|----------------|----------------|----------------|----------------|

G|5---------------|----------------|5---------------|----------------|
D|----7---5-------|5---------------|----7---5-------|5---7---8---9---|
A|------------7---|----7---5---7---|------------7---|----------------|
E|----------------|----------------|----------------|----------------|

🎸 Verse:

G|7---------------|----------------|7---------------|----------------|
D|----9---7-------|7---------------|----9---7-------|7---------------|
A|------------9---|----9---7---9---|------------9---|----9---7---9---|
E|----------------|----------------|----------------|----------------|
Don't let it happen again      Cos' that I couldn't take

G|7---------------|----------------|7---------------|----------------|----------------|----------------|
D|----9---7-------|7---------------|----9---7-------|7---------------|7---------------|7---------------|
A|------------9---|----9---7---9---|------------9---|----9---7---9---|----9---7---9---|----9---7---9---|
E|----------------|----------------|----------------|----------------|----------------|----------------|
 Once was quite enough     it's easy to forgive  harder to forget

G|5---------------|----------------|5---------------|----------------|
D|----7---5-------|5---------------|----7---5-------|5---------------|
A|------------7---|----7---5---7---|------------7---|----7---5---7---|
E|----------------|----------------|----------------|----------------|
 If you leave me  can I come too?  We can always stay

G|5---------------|----------------|----------------|8---7-----------|--------5---8---|7---5---4-------|
D|----7---5-------|5---------------|--------7---10--|--------10--7---|6---8-----------|------------5---|
A|------------7---|----7---5---7---|8---10----------|----------------|----------------|----------------|
E|----------------|----------------|----------------|----------------|----------------|----------------|
But if you leave me ... and if you go           can I come too - oo - oo?

🎸 Outro:

G|5---------------|----------------|5---------------|----------------|
D|----7---5-------|5---------------|----7---5-------|5---7---8---9---|
A|------------7---|----7---5---7---|------------7---|----------------|
E|----------------|----------------|----------------|----------------|

G|5---------------|----------------|5---------------|----------------|
D|----7---5-------|5---------------|----7---5-------|5---7---8---9---|
A|------------7---|----7---5---7---|------------7---|----------------|
E|----------------|----------------|----------------|----------------|
     I've ... that

G|5---------------|----------------|5---------------|----------------|
D|----7---5-------|5---------------|----7---5-------|5---7---8---9---|
A|------------7---|----7---5---7---|------------7---|----------------|
E|----------------|----------------|----------------|----------------|
   Yeah . . . yeah          Can I come too?

G|5---------------|----------------|5---------------|----------------|
D|----7---5-------|5---------------|----7---5-------|5---7---8---9---|
A|------------7---|----7---5---7---|------------7---|----------------|
E|----------------|----------------|----------------|----------------|
          Can I come too?

G|5---------------|----------------|5---------------|----------------|
D|----7---5-------|5---------------|----7---5-------|5---7---8---9---|
A|------------7---|----7---5---7---|------------7---|----------------|
E|----------------|----------------|----------------|----------------|
   Yeah . . . yeah        Yea - ah

Almost there ...

Sign in to get your own page with links to favourite songs and more. You are just one click away...

Login with Facebook Login with Google