Log in

One click and you are in

Login with Facebook Login with Google

Why sign up and log in

Guitar Tabs Explorer
Shawn Mendes guitar tabs for This is what it takes

Guitar tabs

Hey, so this is my first tab..!! I love Shawn Mendes and I hope this tab's good enough
though :)
Some feedback would be great so I know in the future and what not, so enjoy!!!!!
(P.S. So sorry if I messed up somewhere.. I feel like I might have but idk.. ? )

                        ****** \\ This Is What It Takes // ******
                          ======= << Shawn Mendes >> =======

>Tuning: Standard
>Capo: N/A
Intro:
    A chord diagramC majorC          A chord diagramG MajorG          A chord diagramA minorAm              A chord diagramC majorC          A chord diagramG MajorG          A chord diagramA minorAm
e|----------------------------------0-------------------------------------0------|
B|--------1-3--------1-3--------1-3---1h3-------1-3--------1-3--------1-3---1h3--|
G|------0----------0----------0---------------0----------0----------0------------|
D|----2----------0----------2---------------2----------0----------2--------------|
A|--3----------2----------0---------------3----------2----------0----------------|
E|-------------------------------------------------------------------------------|


Verse 1:
   A chord diagramC majorC          A chord diagramG MajorG          A chord diagramA minorAm               A chord diagramFF        A chord diagramG MajorG         A chord diagramC majorC
e|---------------------------------0----------------------------------------|
B|-------1-3--------1-3--------1-3---1h3------1--------1-----------1-3---1--|
G|-----0----------0----------0------------------2--------0-------0-----0----|
D|---2----------0----------2----------------3------------------2------------|
A|-3----------2----------0----------------3----------2-------3--------------|
E|-------------------------------------------------3------------------------| x2


Pre-Chorus:
    A chord diagramFF         A chord diagramFF           A chord diagramG MajorG          A chord diagramG MajorG            A chord diagramC majorC          A chord diagramG MajorG         A chord diagramA minorAm
e|--------------------------------------------------------------------------------0----|
B|------1---------1------------1---------1--------------1-3--------1-3--------1-3---1--|
G|--------0---------0------------0---------0----------0----------0----------0----------|
D|----3-----3---3-----3------------0---------0------2----------0----------2------------|
A|--3---------3--------------2---------2----------3----------2----------0--------------|
E|-------------------------3---------3-------------------------------------------------| x2

Chorus:
    A chord diagramC majorC       A chord diagramDmDm       A chord diagramA minorAm       A chord diagramG MajorG
e|------0--------1--------0-------------|
B|--------1--------0--------1-----0-----|
G|-------------2--------------------0---|
D|----2------0----------2---------------|
A|--3-----------------0---------2-------|
E|----------------------------3---------| x2

   A chord diagramC majorC       A chord diagramDmDm       A chord diagramA minorAm       A chord diagramA minorAm           A chord diagramDmDm        A chord diagramC majorC        A chord diagramFF    A chord diagramG MajorG
|------0--------1--------0--------0-----|------1--------0----1----1--|
|--------1--------0--------1--------1---|--------0--------1--1----0--|
|-------------2-------------------------|----2---------------2----0--|
|----2------0----------2--------2-------|--0----------2------3----0--|
|--3-----------------0--------0---------|-----------3--------3----2--|
|---------------------------------------|--------------------1----3--|


Verse 2:
   A chord diagramC majorC          A chord diagramG MajorG          A chord diagramA minorAm               A chord diagramFF        A chord diagramG MajorG         A chord diagramC majorC
e|---------------------------------0----------------------------------------|
B|-------1-3--------1-3--------1-3---1h3------1--------1-----------1-3---1--|
G|-----0----------0----------0------------------2--------0-------0-----0----|
D|---2----------0----------2----------------3------------------2------------|
A|-3----------2----------0----------------3----------2-------3--------------|
E|-------------------------------------------------3------------------------| x2


Pre-Chorus:
    A chord diagramFF         A chord diagramFF           A chord diagramG MajorG          A chord diagramG MajorG            A chord diagramC majorC          A chord diagramG MajorG         A chord diagramA minorAm
e|--------------------------------------------------------------------------------0----|
B|------1---------1------------1---------1--------------1-3--------1-3--------1-3---1--|
G|--------0---------0------------0---------0----------0----------0----------0----------|
D|----3-----3---3-----3------------0---------0------2----------0----------2------------|
A|--3---------3--------------2---------2----------3----------2----------0--------------|
E|-------------------------3---------3-------------------------------------------------| x2


Chorus:
    A chord diagramC majorC       A chord diagramDmDm       A chord diagramA minorAm       A chord diagramG MajorG
e|------0--------1--------0-------------|
B|--------1--------0--------1-----0-----|
G|-------------2--------------------0---|
D|----2------0----------2---------------|
A|--3-----------------0---------2-------|
E|----------------------------3---------| x2

   A chord diagramC majorC       A chord diagramDmDm       A chord diagramA minorAm       A chord diagramA minorAm           A chord diagramDmDm        A chord diagramC majorC        A chord diagramFF    A chord diagramG MajorG
|------0--------1--------0--------0-----|------1--------0----1----1--|
|--------1--------0--------1--------1---|--------0--------1--1----0--|
|-------------2-------------------------|----2---------------2----0--|
|----2------0----------2--------2-------|--0----------2------3----0--|
|--3-----------------0--------0---------|-----------3--------3----2--|
|---------------------------------------|--------------------1----3--|


Bridge:
   A chord diagramFF         A chord diagramFF           A chord diagramG MajorG         A chord diagramG MajorG          A chord diagramA minorAm        A chord diagramA minorAm           A chord diagramC majorC         A chord diagramC majorC
|-----------------------------------------------------------------------------------------|
|------1---------1-----------0---------0-----------1---------1-----------1---------1------|
|--------2---------2-----------0---------0-----------2---------2-----------0---------0----|
|----3-----3---3-----3-----------0---------0-----2-----2---2-----2-----2-----2---2-----2--|
|--3---------3-------------2---------2---------0---------0-----------3---------3----------|
|------------------------3---------3------------------------------------------------------| x2


Chorus:
    A chord diagramC majorC       A chord diagramDmDm       A chord diagramA minorAm       A chord diagramG MajorG
e|------0--------1--------0-------------|
B|--------1--------0--------1-----0-----|
G|-------------2--------------------0---|
D|----2------0----------2---------------|
A|--3-----------------0---------2-------|
E|----------------------------3---------| x2

   A chord diagramC majorC       A chord diagramDmDm       A chord diagramA minorAm       A chord diagramA minorAm           A chord diagramDmDm        A chord diagramC majorC        A chord diagramFF    A chord diagramG MajorG
|------0--------1--------0--------0-----|------1--------0----1----1--|
|--------1--------0--------1--------1---|--------0--------1--1----0--|
|-------------2-------------------------|----2---------------2----0--|
|----2------0----------2--------2-------|--0----------2------3----0--|
|--3-----------------0--------0---------|-----------3--------3----2--|
|---------------------------------------|--------------------1----3--|


Outro:
   A chord diagramC majorC          A chord diagramG MajorG          A chord diagramA minorAm               A chord diagramFF        A chord diagramG MajorG         A chord diagramC majorC
e|---------------------------------0----------------------------------------||
B|-------1-3--------1-3--------1-3---1h3------1--------1-----------1-3---1--||
G|-----0----------0----------0------------------2--------0-------0-----0----||
D|---2----------0----------2----------------3------------------2------------||
A|-3----------2----------0----------------3----------2-------3--------------||
E|-------------------------------------------------3------------------------||

Tabbed by J.L.
Check out my other tabs for more Shawn Mendes! Don't forget to comment and rate too :)

Other versions of This Is What It Takes

This is what it takesChords

Almost there ...

Sign in to get your own page with links to favourite songs and more. You are just one click away...

Login with Facebook Login with Google