Search tabs and chords

Search for song, artist or band

Log in

One click and you are in

Login with Facebook Login with Google

Why sign up and log in

Guitar Tabs Explorer
Shawn Mendes guitar tabs for Stitches acoustic

Guitar tabs with lyrics

Tuning: Standard

Shawn Mendes & Hailee Steinfeld - Stitches (Acoustic)

Submitted by: Argo

Chords:
Am7 chord diagramAm7Am7 - x02010
G chord diagramGG   - 3x0033
C chord diagramCC   - x30010
F chord diagramFF   - 103010

Intro:
             Am7 chord diagramAm7Am7                    G chord diagramGG                           C chord diagramCC
e|---------------------------||---------------------------||-------------------------|
B|------------1--------------||-------------3-------------||---------1---------------|
G|------0-----------0-----0--||------0-----------0-----0--||-----0--------0---0------|
D|---------------------------||---------------------------||-------------------------|
A|---0-----0-----0-----0-----||---------------------------||--3----3----3----3-------|
E|---------------------------||---3-----3------3-----3----||-------------------------|

    F chord diagramFF
e|------------------------------||
B|-----------1------------------||
G|------------------------------||  Repeat
D|-----0-----------0----0-------||
A|------------------------------||
E|--1-----1-----1-----1---------||


Verse:

             Am7 chord diagramAm7Am7                    G chord diagramGG                           C chord diagramCC
e|---------------------------||---------------------------||-------------------------|
B|------------1--------------||-------------3-------------||---------1---------------|
G|------0-----------0-----0--||------0-----------0-----0--||-----0--------0---0------|
D|---------------------------||---------------------------||-------------------------|
A|---0-----0-----0-----0-----||---------------------------||--3----3----3----3-------|
E|---------------------------||---3-----3------3-----3----||-------------------------|

    F chord diagramFF
e|------------------------------||
B|-----------1------------------||
G|------------------------------||  Repeat 4X
D|-----0-----------0----0-------||
A|------------------------------||
E|--1-----1-----1-----1---------||

Pre-Chorus:

Got a feeling that I'm going under...

    F chord diagramFF                                       G chord diagramGG                       Am7 chord diagramAm7Am7
e|------------------------------||---------------------------||---------------------------||
B|-----------1------------------||-------------3-------------||------------1--------------||
G|------------------------------||------0-----------0-----0--||------0-----------0-----0--||
D|-----0-----------0----0-------||---------------------------||---------------------------||
A|------------------------------||---------------------------||---0-----0-----0-----0-----||
E|--1-----1-----1-----1---------||---3-----3------3-----3----||---------------------------||

      C chord diagramCC                                       Am7 chord diagramAm7Am7
e|-------------------------||             e|--0----------------------||
B|---------1---------------||             B|--1----------------------||
G|-----0--------0---0------||             G|--0----------------------||
D|-------------------------||  Repeat     D|--2----------------------||
A|--3----3----3----3-------||  until Am7 chord diagramAm7Am7  A|--0----------------------||
E|-------------------------||             E|-------------------------||
                                          Move on...

Chorus:

You watched me...
**sometimes he vary by playing the whole chords so just play it whichever you prefer**

    Am7 chord diagramAm7Am7               G chord diagramGG                C chord diagramCC               F chord diagramFF
e|------x----(0)--x------x---------x------x----(0)--x-----x--------------------------|
B|--1---x--1--1---x---3--x--3--3---x---1--x--1--1---x--1--x--1--1--------------------|
G|--0---x--0--0---x---0--x--0--0---x---0--x--0--0---x--0--x--0--0--------------------|   Repeat 4X
D|------x----(2)--x------x----(0)--x------x----(2)--x-----x-----3--------------------|
A|--0---x--0------x------x---------x---3--x--3--3---x-----x--------------------------|
E|------x---------x---3--x--3------x------x---------x--1--x--1-----------------------|

Verse 2:

**Now in verse 2 it has the same pattern like the chorus he just added a little plucking,
 mostly in the D chord diagramDD string**
**plucking the D chord diagramDD string is optional, but it sounds better to me at least)
((He paused a bit only in the first chord, listen carefully to get it)

    Am7 chord diagramAm7Am7            G chord diagramGG                  C chord diagramCC                   F chord diagramFF                  Am7 chord diagramAm7Am7
e|-----x--------x--------x---------x--------x---------x--------x---------x--------x--------|
B|--0--x-----0--x--3--3--x------3--x--1--1--x------1--x--1--1--x------1--x--1--1--x------1-|
G|--1--x-----1--x--0--0--x------0--x--0--0--x------0--x--0--0--x------0--x--0--0--x------0-|  Repeat to G chord diagramGG 4X
D|-----x--------x--------x---(0)---x-----0--x----0----x-----3--x----3----x-----0--x---0----|  until Pre-chorus
A|--0--x--0-----x--------x---------x--3-----x--3------x--------x---------x--0-----x-0------|
E|-----x--------x--3-----x--3------x--------x---------x--1-----x--1------x--------x--------|

[Pre-Chorus:]
**he strums EAD strings a little in F chord diagramFF chord before Pre-Chorus**
Got a feeling that I'm going under...

    F chord diagramFF                                       G chord diagramGG                       Am7 chord diagramAm7Am7
e|------------------------------||---------------------------||---------------------------||
B|-----------1------------------||-------------3-------------||------------1--------------||
G|------------------------------||------0-----------0-----0--||------0-----------0-----0--||
D|-----0-----------0----0-------||---------------------------||---------------------------||
A|------------------------------||---------------------------||---0-----0-----0-----0-----||
E|--1-----1-----1-----1---------||---3-----3------3-----3----||---------------------------||

      C chord diagramCC                                       Am7 chord diagramAm7Am7
e|-------------------------||             e|--0----------------------||
B|---------1---------------||             B|--1----------------------||
G|-----0--------0---0------||             G|--0----------------------||
D|-------------------------||  Repeat     D|--2----------------------||
A|--3----3----3----3-------||  until Am7 chord diagramAm7Am7  A|--0----------------------||
E|-------------------------||             E|-------------------------||
                                          Move on...

**In  the 2nd chorus he now strums the chords while still making a percussive sound
at least until "I'm without your kisses" before fully strumming.

Chorus:

              Am7 chord diagramAm7Am7                        G chord diagramGG
You watch me bleed until I can't breathe
                C chord diagramCC
I'm shaking, falling onto my knees
F chord diagramFF              Am7 chord diagramAm7Am7                  G chord diagramGG
And now that I'm without your kisses
C chord diagramCC                  F chord diagramFF
I'll be needing stitches
Am7 chord diagramAm7Am7
I'm tripping over myself,
        G chord diagramGG         C chord diagramCC
I'm aching begging you to come help
F chord diagramFF             Am7 chord diagramAm7Am7                G chord diagramGG
And now that I'm without your kisses
C chord diagramCC                 F chord diagramFF
I'll be needing stitches

[Instrumental
Am7 chord diagramAm7Am7 G chord diagramGG C chord diagramCC F chord diagramFF 2x

Bridge:

Am7 chord diagramAm7Am7
Needle and the thread,
G chord diagramGG
Gotta get you out of my head
C chord diagramCC
Needle and the thread,
 F chord diagramFF
Gonna wind up dead
Am chord diagramAmAm
Needle and the thread,
 G chord diagramGG
Gotta get you out of my head
C chord diagramCC
Needle and the thread
F chord diagramFF
Gonna wind up dead

Repeat 2x

Chorus:

              Am7 chord diagramAm7Am7                        G chord diagramGG
You watch me bleed until I can't breathe
                C chord diagramCC
I'm shaking, falling onto my knees
F chord diagramFF              Am7 chord diagramAm7Am7                  G chord diagramGG
And now that I'm without your kisses
C chord diagramCC                  F chord diagramFF
I'll be needing stitches
Am7 chord diagramAm7Am7
I'm tripping over myself,
        G chord diagramGG         C chord diagramCC
I'm aching begging you to come help
F chord diagramFF             Am7 chord diagramAm7Am7                G chord diagramGG
And now that I'm without your kisses
C chord diagramCC                 F chord diagramFF     G chord diagramGG   Am7 chord diagramAm7Am7
I'll be needing stitches


*just listen to the song to get the timing right* :)
Thank you.

************************************

| x   Dead note
| (n) Ghost note

Other versions of Stitches Acoustic

StitchesChords
Stitches (Ver. 2)Chords
Stitches (Ver. 3)Chords
Stitches (Ver. 4)Chords
Stitches acousticChords
Stitches acoustic (Ver. 2)Chords
Stitches ukuleleChords
StitchesTabs
Stitches (Ver. 2)Tabs
Stitches introTabs

Almost there ...

Sign in to get your own page with links to favourite songs and more. You are just one click away...

Login with Facebook Login with Google