Search tabs and chords

Search for song, artist or band

Log in

One click and you are in

Login with Facebook Login with Google

Why sign up and log in

Guitar Tabs Explorer
Shawn Mendes guitar chords for Stitches (Ver. 4)

Guitar chords with lyrics

  • Capo on 1st
Tuning: Standard (E A D G B E)

Key: A chord diagramBbmBbm

Difficulty: Intermediate

Intro:

e|-----------------|-----------------|-----------------|-----------------|
B|---5---5---5---5-|---3---3---3---3-|---5---5---5---5-|---1---1---1---1-|
G|---5---5---5---5-|---4---4---4---4-|---5---5---5---5-|---2---2---2---2-|
D|-----------------|-----------------|-----------------|-----------------|
A|-0---------------|-----------------|-3---------------|-----------------|
E|-----------------|-3---------------|-----------------|-1---------------|

Verse 1:

e|-----------------|-----------------|-----------------|-----------------|
B|---5---5---5---5-|---3---3---3---3-|---5---5---5---5-|---1---1---1---1-|
G|---5---5---5---5-|---4---4---4---4-|---5---5---5---5-|---2---2---2---2-|
D|-----------------|-----------------|-----------------|-----------------|
A|-0---------------|-----------------|-3---------------|-----------------|
E|-----------------|-3---------------|-----------------|-1---------------|
         I  thought  that  I've  been  hurt  before

e|-----------------|-----------------|-----------------|-----------------|
B|---5---5---5---5-|---3---3---3---3-|---5---5---5---5-|---1---1---1---1-|
G|---5---5---5---5-|---4---4---4---4-|---5---5---5---5-|---2---2---2---2-|
D|-----------------|-----------------|-----------------|-----------------|
A|-0---------------|-----------------|-3---------------|-----------------|
E|-----------------|-3---------------|-----------------|-1---------------|
   But  no  one's  ever  left  me  quite  this  sore

e|-----------------|-----------------|-----------------|-----------------|
B|---5---5---5---5-|---3---3---3---3-|---5---5---5---5-|---1---1---1---1-|
G|---5---5---5---5-|---4---4---4---4-|---5---5---5---5-|---2---2---2---2-|
D|-----------------|-----------------|-----------------|-----------------|
A|-0---------------|-----------------|-3---------------|-----------------|
E|-----------------|-3---------------|-----------------|-1---------------|
         Your  words  cut  deeper  than  a  knife

e|-----------------|-----------------|-----------------|-----------------|
B|---5---5---5---5-|---3---3---3---3-|---5---5---5---5-|---1---1---1---1-|
G|---5---5---5---5-|---4---4---4---4-|---5---5---5---5-|---2---2---2---2-|
D|-----------------|-----------------|-----------------|-----------------|
A|-0---------------|-----------------|-3---------------|-----------------|
E|-----------------|-3---------------|-----------------|-1---------------|
   Now  I  need  someone  to  bring  me  back  to  life

Pre Chorus:

e|-----------------|-----------------|-----------------|-----------------|
B|---1---1---1---1/|/--3---3---3---3-|---5---5---5---5-|---5---5---5---5-|
G|---2---2---2---2/|/--4---4---4---4-|---5---5---5---5-|---5---5---5---5-|
D|-----------------|-----------------|-----------------|-----------------|
A|-----------------|-----------------|-3---------------|-3---------------|
E|-1--------------/|/3---------------|-----------------|-----------------|
      Gotta feeling I'm going under       But I know that I'll make it out alive

e|-----------------|-----------------|-----------------|-----------------|
B|---1---1---1---1/|/--3---3---3---3-|---5---5---5---5-|---3-------------|
G|---2---2---2---2/|/--4---4---4---4-|---5---5---5---5-|---4-------------|
D|-----------------|-----------------|-----------------|-----------------|
A|-----------------|-----------------|-3---------------|-3---------------|
E|-1--------------/|/3---------------|-----------------|-----------------|
      If I quit calling you my lover      And move on


Chorus:
             A chord diagramA minorAm                        A chord diagramG MajorG
You watch me bleed until I cant breathe, shakeing
A chord diagramC majorC                     A chord diagramFF
Falling onto my knees
             A chord diagramA minorAm               A chord diagramG MajorG
And now that I'm without your kisses
A chord diagramC majorC                A chord diagramFF
I'll be needing stitches
A chord diagramA minorAm                 A chord diagramG MajorG
Tripping over myself, aching
A chord diagramC majorC                        A chord diagramFF
Begging you to come help
             A chord diagramA minorAm               A chord diagramG MajorG
And now that I'm without your kisses
A chord diagramC majorC               A chord diagramFF
I'll be needing stitches


Verse 2:
A chord diagramA minorAm          A chord diagramG MajorG               A chord diagramC majorC       A chord diagramFF
Just like a moth drawn to a flame
        A chord diagramA minorAm            A chord diagramG MajorG                  A chord diagramC majorC       A chord diagramFF
Oh, you lured me in I couldn't sense the pain
A chord diagramA minorAm                 A chord diagramG MajorG           A chord diagramC majorC       A chord diagramFF
Your bitter heart, cold to the touch
              A chord diagramA minorAm               A chord diagramG MajorG
Now I'm gonna reap what I sow
                A chord diagramC majorC              A chord diagramFF
I'm left seeing red on my own


Pre Chorus:
A chord diagramC majorC                      A chord diagramG MajorG
Got a feeling that I'm going under
A chord diagramA minorAm                   A chord diagramFF
But I know that I'll make it out alive
A chord diagramC majorC                 A chord diagramG MajorG
If I quit calling you my lover
A chord diagramFF
Move on


Chorus:
             A chord diagramA minorAm                        A chord diagramG MajorG
You watch me bleed until I cant breathe, shakeing
A chord diagramC majorC                     A chord diagramFF
Falling onto my knees
             A chord diagramA minorAm               A chord diagramG MajorG
And now that I'm without your kisses
A chord diagramC majorC                A chord diagramFF
I'll be needing stitches
A chord diagramA minorAm                 A chord diagramG MajorG
Tripping over myself, aching
A chord diagramC majorC                        A chord diagramFF
Begging you to come help
             A chord diagramA minorAm               A chord diagramG MajorG
And now that I'm without your kisses
A chord diagramC majorC               A chord diagramFF
I'll be needing stitches


Bridge:
A chord diagramA minorAm
Needle and the thread,
  A chord diagramG MajorG
Gotta get you out of my head
A chord diagramC majorC
Needle and the thread,
      A chord diagramFF
Gonna wind up dead
A chord diagramA minorAm
Needle and the thread,
      A chord diagramG MajorG
Gotta get you out of my head
A chord diagramC majorC
Needle and the thread,
      A chord diagramFF
Gonna wind up dead
A chord diagramA minorAm
Needle and the thread,
      A chord diagramG MajorG
Gotta get you out of my head
A chord diagramC majorC
Needle and the thread,
      A chord diagramFF
Gonna wind up dead
A chord diagramA minorAm
Needle and the thread,
      A chord diagramG MajorG                       A chord diagramC majorC
Gotta get you out of my head, get you out of my head


Chorus:
           A chord diagramA minorAm                        A chord diagramG MajorG
You watch me bleed until I cant breathe, shakeing
A chord diagramC majorC                     A chord diagramFF
Falling onto my knees
             A chord diagramA minorAm               A chord diagramG MajorG
And now that I'm without your kisses
A chord diagramC majorC                A chord diagramFF
I'll be needing stitches
A chord diagramA minorAm                 A chord diagramG MajorG
Tripping over myself, aching
A chord diagramC majorC                        A chord diagramFF
Begging you to come help
             A chord diagramA minorAm               A chord diagramG MajorG
And now that I'm without your kisses
A chord diagramC majorC               A chord diagramFF
I'll be needing stitches


Outro:
N.C.
(And now that) I'm without your kisses
N.C.
I'll be needing stitches
N.C.
(And now that) I'm without your kisses
N.C.
I'll be needing stitches

************************************

| x   Dead note
| g   Grace note
| (n) Ghost note
| h   Hammer-on
| p   Pull-off
| r   Release
| >   Accented note
| t   Tapping
| b   Bend
| br  Bend release
| pb  Pre-bend
| pbr Pre-bend release
| /   Slide up
| \   Slide down
| ~   Vibrato
| s   Slap
| P   Pop
| PM  Palm mute
| TR  Trill
| N   Tremolo

************************************

Other versions of Stitches

StitchesChords
Stitches (Ver. 2)Chords
Stitches (Ver. 3)Chords
Stitches acousticChords
Stitches acoustic (Ver. 2)Chords
Stitches ukuleleChords
StitchesTabs
Stitches (Ver. 2)Tabs
Stitches acousticTabs
Stitches introTabs

Almost there ...

Sign in to get your own page with links to favourite songs and more. You are just one click away...

Login with Facebook Login with Google