Search tabs and chords

Search for song, artist or band

Log in

One click and you are in

Login with Facebook Login with Google

Why sign up and log in

Guitar Tabs Explorer
Shawn Mendes guitar tabs for Stitches (Ver. 2)

Guitar tabs

Intro:
e|---------------------------------------------------------------------------|
B|-----5--5--5--5--------3--3--3--3--------5--5--5--5--------1--1--1--1------|
G|-----5--5--5--5--------4--4--4--4--------5--5--5--5--------2--2--2--2------|
D|---------------------------------------------------------------------------|
A|--0-----------------------------------3------------------------------------|
E|--------------------3-----------------------------------1------------------|

e|---------------------------------------------------------------------------|
B|-----5--5--5--5--------3--3--3--3--------5--5--5--5--------1--1--1--1------|
G|-----5--5--5--5--------4--4--4--4--------5--5--5--5--------2--2--2--2------|
D|---------------------------------------------------------------------------|
A|--0-----------------------------------3------------------------------------|
E|--------------------3-----------------------------------1------------------|

Verse:
e|--------------------------------0--0--0--0---------------------------------|
B|--------------------------------1--1--1--1-----1--1--1---------------------|
G|-----2--0-----2--0-----------------------------2--2--2---------------------|
D|-----------2--------2--0--2--------------------------------0--2--0--2--0---|
A|--0--------------------------3--------------------------0-----2-----2------|
E|--------------3-----------------------------1------------------------------|

e|-----------------0--0--0--0-----------------------------------------0--0---|
B|-----------------1--1--1--1-----1--1--1-----------------------------1--1---|
G|--------------------------------2--2--2--2--0-----2--0-----0---------------|
D|--2--0-----0-----------------------------------2--------2--0--2------------|
A|--2-----3-----3--------------------------------------------------3---------|
E|-----------------------------1---------------------------------------------|

e|--0--0-----------------------------------------------0--0--0--0-----1--1---|
B|--1--1-----1--1--1-----------------------------------1--1--1--1-----2--2---|
G|-----------2--2--2---------------------------------------------------------|
D|-----------------------0--2--0--0--0--2--0-----0---------------------------|
A|--------------------3-----------------------3-----3------------------------|
E|--------1--------------------------------------------------------1---------|

e|--1-------|
B|--2-------|
G|----------|
D|----------|
A|----------|
E|----------|

Chorus:
e|---------------------------------------------------------------------------|
B|-----------------0--0--0-----------------------0--0--0--1--1---------------|
G|--0--2--2--2--2-----------2-----0--2--2--2--2--------------------0--2--2---|
D|-----3--3--3--3-----------------------------------------------------3--3---|
A|--------------------------------------------------------3--3---------------|
E|-----1--1--1--1-----------------------------------------------------1--1---|

e|-----------------------------------------------2---------------------------|
B|--------0--0--------1--0--------4--2--------4-----4--2--4--2--4--2-----4---|
G|--2--2--------2-----------2-----------4-----------------------------4------|
D|--3--3---------------------------------------------------------------------|
A|---------------------------------------------------------------------------|
E|--1--1---------------------------------------------------------------------|

e|--2------------------------------------------------------------------------|
B|-----4--2--4--2--------------3--0--------------3--0------------------------|
G|-----------------------------------2-----------------2---------------------|
D|--------------------0--2--3-----------0--2--3------------------------------|
A|---------------------------------------------------------------------------|

Other versions of Stitches

StitchesChords
Stitches (Ver. 2)Chords
Stitches (Ver. 3)Chords
Stitches (Ver. 4)Chords
Stitches acousticChords
Stitches acoustic (Ver. 2)Chords
Stitches ukuleleChords
StitchesTabs
Stitches acousticTabs
Stitches introTabs

Almost there ...

Sign in to get your own page with links to favourite songs and more. You are just one click away...

Login with Facebook Login with Google