Search tabs and chords

Search for song, artist or band

Log in

One click and you are in

Login with Facebook Login with Google

Why sign up and log in

Guitar Tabs Explorer
Shawn Mendes bass tabs for Stitches (Ver. 2)

Bass tabs with lyrics

Note: This tab is written in phrases not measures, I have divided the tab up into the different phrases of the
song as this is the way I learn it.
If you need more direct timing of things feel free to message me and I will help if I can!

Intro: Rest
Verse 1: Rest until-("Got a feeling that...")
G|-------------------------------------------------|---------------------------------------------|
D|-------------------------------------------------|---------------------------------------------|
A|--------------------------------1---------1------|-------------------------1---------BREAK-----|
E|-2--------------4--------------------------------|-2------------4------------------------------|
  1  2  3  4     1  2  3  4      1 2 3 4   1 2 3 4  1  2  3  4   1 2 3 4    1 2 3 4

Chorus 1: ("You watch me..")
G|---------------------------------------------------------------------------------------------------|
D|------------------------6--------------------------4-3-1-------------------------6-----------------|
A|----------------------6---6---4--4-4-4---------------------1--1-1-1------------6---6---------------|
E|-6--6-6-6-----4--4-4----------------------2--2-2-----------------------4--4-4----------2--2-2-2----|

G|-----------------|
D|---------4-3-1-3-|
A|-4-4---4---------|
E|-----------------|

("Trippin over myself...")
G|---------------------------------------------------------------------------------------------------|
D|------------------------6--------------------------------------------------------6-----------------|
A|----------------------6---6---4--4-4-4---------------------1--1-1-1------------6---6---------------|
E|-6--6-6-6-----4--4-4----------------------2--2-2--4--------------------4--4-4----------2--2-2-2----|

G|-----------------|
D|---------4-3-1-3-|
A|-4-4---4---------|
E|-----------------|

Verse 2: ("Just like a moth...")
G|-------------------------------------------------------------|
D|-------------------------------------------------------------|
A|--------------------------------4-4-4-4-4-4------------------|
E|-6--------------4----------------------------2-2-2-2-2-2-----|
  1  2  3  4     1  2  3  4

("Oh you lured me...")
G|-------------------------------------------------------||
D|-------------------------------------------------------||x3
A|------------------------------4-4-4-4-4-4--------------||
E|-6-6-6-6-6-6---4-4-4-4-4-4-----------------2-2-2-2-2-2-||

("Got a feeling that...")
G|-------------------------------------------------|---------------------------------------------|
D|-------------------------------------------------|---------------------------------------------|
A|--------------------------------1---------1------|-------------------------1---------BREAK-----|
E|-2--------------4--------------------------------|-2------------4------------------------------|
  1  2  3  4     1  2  3  4      1 2 3 4   1 2 3 4  1  2  3  4   1 2 3 4    1 2 3 4

Chorus 2: ("You watch me..")
G|---------------------------------------------------------------------------------------------------|
D|------------------------6--------------------------4-3-1-------------------------6-----------------|
A|----------------------6---6---4--4-4-4---------------------1--1-1-1------------6---6---------------|
E|-6--6-6-6-----4--4-4----------------------2--2-2-----------------------4--4-4----------2--2-2-2----|

G|-----------------|
D|---------4-3-1-3-|
A|-4-4---4---------|
E|-----------------|

("Trippin over myself...")
G|---------------------------------------------------------------------------------------------------|
D|------------------------6--------------------------------------------------------6-----------------|
A|----------------------6---6---4--4-4-4---------------------1--1-1-1------------6---6---------------|
E|-6--6-6-6-----4--4-4----------------------2--2-2--4--------------------4--4-4----------2--2-2-2----|

G|-----------------|
D|---------4-3-1-3-|
A|-4-4---4---------|
E|-----------------|

Bridge: Rest until kick drum enters (after 8 measures of 4 beats), then follow kick pattern
G|---------------------------------------------------------||
D|---------------------------------------------------------||x2
A|--------------------4-4----------------------------------||
E|-6-6------4-4------------2-2-----------------------------||
Bridge (last time):
G|---------------------------------------------------------|
D|---------------------------------------------------------|
A|--------------------4-4----------------------------------|
E|-6-6------4-4--------------------------------------------|

Chorus 1: ("You watch me..")
G|---------------------------------------------------------------------------------------------------|
D|------------------------6--------------------------4-3-1-------------------------6-----------------|
A|----------------------6---6---4--4-4-4---------------------1--1-1-1------------6---6---------------|
E|-6--6-6-6-----4--4-4----------------------2--2-2-----------------------4--4-4----------2--2-2-2----|

G|-----------------|
D|---------4-3-1-3-|
A|-4-4---4---------|
E|-----------------|

("Trippin over myself...")
G|---------------------------------------------------------------------------------------------------|
D|------------------------6--------------------------------------------------------6-----------------|
A|----------------------6---6---4--4-4-4---------------------1--1-1-1------------6---6---------------|
E|-6--6-6-6-----4--4-4----------------------2--2-2--4--------------------4--4-4----------2--2-2-2----|

G|-----------------|
D|---------4-3-1-3-|
A|-4-4---4---------|
E|-----------------|

Outro-Rest

Other versions of Stitches

StitchesBass tabs

Almost there ...

Sign in to get your own page with links to favourite songs and more. You are just one click away...

Login with Facebook Login with Google