Search tabs and chords

Search for song, artist or band

Log in

One click and you are in

Login with Facebook Login with Google

Why sign up and log in

Guitar Tabs Explorer
Shawn Mendes guitar tabs for Something big acoustic

Guitar tabs

Tuning: Standard

Capo 3


  Intro
e|---------------------------------------------------------------------------|
B|---------------------------------------3-----------------------------------|
G|------------0--4----2---------0--2--4-----4--2--0--------------------------|
D|-- 2-----2-----------------------------------------------------------------|
A|---------------------------------------------------------------------------|
E|---------------------------------------------------------------------------|

e|---------------------------------------------------------------------------|
B|---------------------------------------3-----------------------------------|
G|------------0--4----2---------0--2--4-----4--2--0--------------------------|
D|-- 2-----2-----------------------------------------2-----------------------|
A|---------------------------------------------------------------------------|
E|---------------------------------------------------------------------------|

  Verse
e|---------------------------------------------------------------------------|
B|---------------------------------------------------------------------------|
G|-0-0-0-0-0-0-0-------0-0---0-0-0-0-0---0-0-0---0-0-0-2---------------------|
D|---------------2-----------------------------------------------------------|
A|---------------------------------------------------------------------------|
E|---------------------------------------------------------------------------|

e|---------------------------------------------------------------------------|
B|---------------------------------------------------------------------------|
G|---------------0-0-0-2-2-----0-0-0-4-4-------------------------------------|
D|---------------------------------------------------------------------------|
A|---------------------------------------------------------------------------|
E|---------------------------------------------------------------------------|

e|---------------------------------------------------------------------------|
B|---------------------------------------------------------------------------|
G|-0-0-0-0-0-0-0-0-0-0-0-0------0-0-0-0--0-0-0-0-0-0-2-----------------------|
D|-------------------------2-------------------------------------------------|
A|---------------------------------------------------------------------------|
E|---------------------------------------------------------------------------|

e|---------------------------------------------------------------------------|
B|---------------------------------------------------------------------------|
G|--0-0-0-2-2-----0-0-0-4-4--------4-2-0----0--------------------------------|
D|---------------------------------------2-----------------------------------|
A|---------------------------------------------------------------------------|
E|---------------------------------------------------------------------------|

  Chorus
e|---------------------------------------------------------------------------|
B|-5--3--0--3--0--3--0--------------5--3--0--3--0----------------------------|
G|---------------------2--0--------------------------------------------------|
D|---------------------------------------------------------------------------|
A|---------------------------------------------------------------------------|
E|---------------------------------------------------------------------------|

e|---------------------------------------------------------------------------|
B|-5--3--0--3--0--3--0--------------5--3--0--3--0----------------------------|
G|---------------------2--0---------------------------2----------------------|
D|---------------------------------------------------------------------------|
A|---------------------------------------------------------------------------|
E|---------------------------------------------------------------------------|

e|---------------------------------------------------------------------------|
B|---------------------------------------3-----------------------------------|
G|------------0--4----2---------0--2--4-----4--2--0--------------------------|
D|-- 2-----2-----------------------------------------------------------------|
A|---------------------------------------------------------------------------|
E|---------------------------------------------------------------------------|

e|---------------------------------------------------------------------------|
B|-------------------------------3-----3-----3-------------------------------|
G|------------0--4----2-------4-----4-----4-----4-----2--0-------------------|
D|-- 2-----2-----------------------------------------------------------------|
A|---------------------------------------------------------------------------|
E|---------------------------------------------------------------------------|

e|---------------------------------------------------------------------------|
B|---------------------------------------3-----------------------------------|
G|------------0--4----2---------0--2--4-----4--2--0--------------------------|
D|-- 2-----2-----------------------------------------------------------------|
A|---------------------------------------------------------------------------|
E|---------------------------------------------------------------------------|

e|---------------------------------------------------------------------------|
B|-----------------------------------3---------------------------------------|
G|------------0--4----2-----------4-----4------------------------------------|
D|-- 2-----2-----------------------------------------------------------------|
A|---------------------------------------------------------------------------|
E|---------------------------------------------------------------------------|

  Verse
e|---------------------------------------------------------------------------|
B|---------------------------------------------------------------------------|
G|-0-0-0-0-0-0-0-0-0-0-0-0-------0-0-0---0-0---0-0-0-0-0-0-0-2---------------|
D|-------------------------2-------------------------------------------------|
A|---------------------------------------------------------------------------|
E|---------------------------------------------------------------------------|

e|---------------------------------------------------------------------------|
B|---------------------------------------------------------------------------|
G|-----0-0-0-2-2-----------0-0-0-4-4-----------------------------------------|
D|---------------------------------------------------------------------------|
A|---------------------------------------------------------------------------|
E|---------------------------------------------------------------------------|

e|---------------------------------------------------------------------------|
B|---------------------------------------------------------------------------|
G|-0-0-0-0-0-0-0-0-0-0-0---------0-0-0-0-0-0-0-0---0---0--2------------------|
D|-----------------------2---------------------------------------------------|
A|---------------------------------------------------------------------------|
E|---------------------------------------------------------------------------|

e|---------------------------------------------------------------------------|
B|---------------------------------------------------------------------------|
G|----------0-0-0-2-2------------0-0-0-4-4--------4-2-0-----0----------------|
D|-------------------------------------------------------2-------------------|
A|---------------------------------------------------------------------------|
E|---------------------------------------------------------------------------|

  Chorus
e|---------------------------------------------------------------------------|
B|-5--3--0--3--0--3--0--------------5--3--0--3--0----------------------------|
G|---------------------2--0--------------------------------------------------|
D|---------------------------------------------------------------------------|
A|---------------------------------------------------------------------------|
E|---------------------------------------------------------------------------|

e|---------------------------------------------------------------------------|
B|-5--3--0--3--0--3--0--------------5--3--0--3--0----------------------------|
G|---------------------2--0---------------------------2----------------------|
D|---------------------------------------------------------------------------|
A|---------------------------------------------------------------------------|
E|---------------------------------------------------------------------------|

e|---------------------------------------------------------------------------|
B|---------------------------------------3-----------------------------------|
G|------------0--4----2---------0--2--4-----4--2--0--------------------------|
D|-- 2-----2-----------------------------------------------------------------|
A|---------------------------------------------------------------------------|
E|---------------------------------------------------------------------------|

e|---------------------------------------------------------------------------|
B|-----------------------------------3-----3-----3---------------------------|
G|------------0--4----2-----------4-----4-----4-----4-----2--0---------------|
D|-- 2-----2-----------------------------------------------------------------|
A|---------------------------------------------------------------------------|
E|---------------------------------------------------------------------------|

e|---------------------------------------------------------------------------|
B|---------------------------------------3-----------------------------------|
G|------------0--4----2---------0--2--4-----4--2--0--------------------------|
D|-- 2-----2-----------------------------------------------------------------|
A|---------------------------------------------------------------------------|
E|---------------------------------------------------------------------------|

e|---------------------------------------------------------------------------|
B|-----------------------------------3---------------------------------------|
G|------------0--4----2-----------4-----4------------------------------------|
D|-- 2-----2-----------------------------------------------------------------|
A|---------------------------------------------------------------------------|
E|---------------------------------------------------------------------------|

  Bridge
e|---------------------------------------------------------------------------|
B|----5----3--0--------0---3----0--------------------------------------------|
G|---------------2---------------------------------------4----2--------------|
D|---------------------------------------------------------------------------|
A|---------------------------------------------------------------------------|
E|---------------------------------------------------------------------------|

e|---------------------------------------------------------------------------|
B|---------------------------------------------------------------------------|
G|----------0---0---0---0-------------0---0---0---2--------------------------|
D|------2-2---2---2---2-----------2-2---2---2---2----------------------------|
A|---------------------------------------------------------------------------|
E|---------------------------------------------------------------------------|

e|---------------------------------------------------------------------------|
B|--------------------------------------3----3----3--0-----------------------|
G|----2--2--2--2-0--2-2--2--------2---4----4-----4---------------------------|
D|---------------------------------------------------------------------------|
A|---------------------------------------------------------------------------|
E|---------------------------------------------------------------------------|

e|---------------------------------------------------------------------------|
B|-5--3-----3-----3-------------5--3-----3-------3---------------------------|
G|-------4-----4------4---------------4------4-------4-----------------------|
D|---------------------------------------------------------------------------|
A|---------------------------------------------------------------------------|
E|---------------------------------------------------------------------------|

e|---------------------------------------------------------------------------|
B|------------------------------3-----3-----3--5\----------------------------|
G|---2--2--2--0--2--0--2------4-----4-----4----------------------------------|
D|---------------------------------------------------------------------------|
A|---------------------------------------------------------------------------|
E|---------------------------------------------------------------------------|

  Chorus
e|---------------------------------------------------------------------------|
B|-5--3--0--3--0--3--0--------------5--3--0--3--0----------------------------|
G|---------------------2--0--------------------------------------------------|
D|---------------------------------------------------------------------------|
A|---------------------------------------------------------------------------|
E|---------------------------------------------------------------------------|

e|---------------------------------------------------------------------------|
B|-5--3--0--3--0--3--0--------------5--3--0--3--0----------------------------|
G|---------------------2--0---------------------------2----------------------|
D|---------------------------------------------------------------------------|
A|---------------------------------------------------------------------------|
E|---------------------------------------------------------------------------|

e|---------------------------------------------------------------------------|
B|---------------------------------------3-----------------------------------|
G|------------0--4----2---------0--2--4-----4--2--0--------------------------|
D|-- 2-----2-----------------------------------------------------------------|
A|---------------------------------------------------------------------------|
E|---------------------------------------------------------------------------|

e|---------------------------------------------------------------------------|
B|---------------------------------------------------------------------------|
G|------------0--4----2------------------------------------------------------|
D|-- 2-----2-----------------------------------------------------------------|
A|---------------------------------------------------------------------------|
E|---------------------------------------------------------------------------|

e|---------------------------------------------------------------------------|
B|---------------------------------------3-----------------------------------|
G|------------0--4----2---------0--2--4-----4--2--0--------------------------|
D|-- 2-----2-----------------------------------------------------------------|
A|---------------------------------------------------------------------------|
E|---------------------------------------------------------------------------|

e|---------------------------------------------------------------------------|
B|---------------------------------------------------------------------------|
G|------------0--4----2------------------------------------------------------|
D|-- 2-----2--------------------------------------------------------2--------|
A|---------------------------------------------------------------------------|
E|---------------------------------------------------------------------------|


************************************

| /   slide up
| \   slide down
| h   hammer-on
| p   pull-off
| ~   vibrato
| +   harmonic
| x   Mute note
| b   Bend
| pb  Pre-bend
| br  Bend release
| pbr Pre-bend release
| brb Bend release bend

Other versions of Something Big Acoustic

Something bigChords

Almost there ...

Sign in to get your own page with links to favourite songs and more. You are just one click away...

Login with Facebook Login with Google