Search tabs and chords

Search for song, artist or band

Log in

One click and you are in

Login with Facebook Login with Google

Why sign up and log in

Guitar Tabs Explorer
Shawn Mendes guitar tabs for Señorita

Guitar tabs

  • Capo on 5th
Tuning: Standard (E A D G B E)

Difficulty: Advanced

Intro:

e|---x-------x-------x-----x-----x-------x-------x-----x-----0-----0-x-----0-x---0|
B|---0-----0-x-----0-x---0-x-----0-----0-x-----0-x---0-x-----0-----0-x-----0-x---0|
G|---0-----0-x-----0-x---0-x-----0-----0-x-----0-x---0-x-----0-----0-x-----0-x---0|
D|---2-----2-x-----2-x---2-x-----0-----0-x-----0-x---0-x-----x-------x-------x----|
A|---x-------x-------x-----x-----x-------x-------x-----x-2-3-x-3-3---x-3-3---x-3--|
E|-0-x-0-0---x-0-0---x-0---x-2-3-x-3-3---x-3-3---x-3---x-----x-------x-------x----|

e|-x-----x-------x---2-x----------------------------------------------------------|
B|-x-----3-----3-x---3-x----------------------------------------------------------|
G|-x-----2-----2-x---2-x----------------------------------------------------------|
D|-x-----4-----4-x-0---x----------------------------------------------------------|
A|-x-3-2-x-2-2---x-----x----------------------------------------------------------|
E|-x-----x-------x-----x----------------------------------------------------------|


Chorus:

e|-----------------x-----x---------x-2-2h3-2-0-2/3-0-----3-2---0-x-2-2h3-2-0-2---3|
B|-7-7/8-7-5-7-7/8-5---0-7/8-7---5-x---------------x---0-x-------x-------------1-1|
G|-----------------x-----x---------x---------------x-----x-------x-------------0--|
D|-----------------x-----x---------x---------------x-----x-------x-------------2--|
A|-----------------x-----x---------x---------------x-----x-------x---2-----3---3--|
E|-------------0---x-0---x-----0---x---0-----2-2/3-x-3---x---3---x----------------|

e|-x-3-3---x-----3-x-3-3---x-2---2h3-2-3-2---x-2---2h3-2-3-2-0-0-0----------------|
B|-x-1-1---x-1-1-1-x-1-1---x---------x-----3-x---------x-------x------------------|
G|-x-0-----x---0---x-0-----x---------x-------x---------x-------x------------------|
D|-x-------x---2---x-------x---------x-------x---0-----x-0-----x------------------|
A|-x-3---3-x---3---x-3---3-x---2-----x-2-----x---------x-------x------------------|
E|-x-------x-------x-------x---------x-------x---------x-------x------------------|

Verse 1:

e|-------x-------x-------x-------x-------x-------x-------x---------x-------x------|
B|-------x-------x-------x-------x-------x-------x-------x---0h1-0-x-----1-x-1-1--|
G|---2/4-2-4-2-0-x---2/4-2-4-2-0-0-----4-2-4-2-0-x---2h4-2-4-------2-0---0-x-0-0--|
D|-------x-------x-------x-------x-4-2---x-------x-------x---------x---2---x-2----|
A|-------x-------x-------x-------x-------x-------x-------x---------x---3---x-3---3|
E|-0-----x-0-----x-0-----x-0-----x---3---x-3-----x-3-----x-3-------x-------x------|

e|-x-------x-------x-------x-------x-----x-----------------x-------x--------------|
B|-x-----1-x-1-1---x-------x-------x-----x-----------------x-------x--------------|
G|-x-----0-x-0-0---x-----2-x-2-2---x-0---x-------------2/4-2-4-2-0-x---2/4-2-4-2-0|
D|-x-2-2---x-2-----0-0-0---x-------x---4-x-0h2---VV?---2/4-2-4-2-0-x---2/4-2-4-2-0|
A|-x---3---x-3---3-x---2---x-2---2-x---5-x-5---5-----------x-------x--------------|
E|-x-------x-------x-------x-------x-----x-----------0-----x-0-----x-0-------0----|

e|-x-------x-------x-------x---------x-------x-------x-------x-------x-------x----|
B|-x-------x-------x-------x---0h1-0-x-----1-x-1-1---x-----1-x-1-1---x-------x----|
G|-0-----4-2-4-2-0-x---2h4-2-4-------2-0---0-x-0-0---x-----0-x-0-0---x-----2-x-2--|
D|-0-4-2---x-------x-------x---------x---2---x-2-----x-2-2---x-2---0-0-0-0---x----|
A|-x-------x-------x-------x---------x---3---x-3---3-x---3---x-3-----x---2---x-2--|
E|-x---3---x-3-----x-3-----x-3-------x-------x-------x-------x-------x-------x----|

e|-----x-------x------------------------------------------------------------------|
B|-----x-------x------------------------------------------------------------------|
G|-2---x-0-----x------------------------------------------------------------------|
D|-----x---4---x------------------------------------------------------------------|
A|---2-x---5-5-x------------------------------------------------------------------|
E|-----x-------x------------------------------------------------------------------|


Chorus:
               O               O               O             O                 O
e|-----------------x-----x---------x-2-2h3-2-0-2h3-0-----3-2---0-x-2-2h3-2-0------|
B|-7-7/8-7-5-7-7/8-5---0-7/8-7---5-x---------x-----0---0-x-------x---------x-3-1--|
G|-------------0---0---0-0---0---0-x---------x-----0---0-x-------x---------x---0--|
D|-----------------x-----x---------x---------x-----x-----x-------x---------x---2--|
A|-----------------x-----x---------x---------x-----x-----x-------x---------x---3--|
E|-------------0---x-0---x-----0---x-0-------x-3---x-3---x---3---x-3-------x------|

                 O               O       O         O                 O         O
e|-3-x-3-3---x-----3-x-3-3---x-2---2h3-2-3-2---x-2---2h3-2-3-2-0-0-------x--------|
B|-1-x-1-1---x-1-1-1-x-1-1---x---------x-----3-x---------x-------x-7-7/8-5---0-7/8|
G|---x-0-----x---0---x-0-----x---------x-------x---------x-------x---0---0---0-0--|
D|---x-------x---2---x-------x---------x-------x---0-----x-0-----x-------x--------|
A|---x-3---3-x---3---x-3---3-x---2-----x-2-----x---------x-------x-------x--------|
E|---x-------x-------x-------x---------x-------x---------x-------x---0---x-0---0--|

     O               O             O                 O               O
e|-------x-2-2h3-2-0-2h3-0-----3-2---0-x-2-2h3-2-0-----3-x-3-3---x-----3-x-3-3---x|
B|-7---5-x---------x-----0---0-x-------x---------x-3-1-1-x-1-1---x-1-1-1-x-1-1---x|
G|-0---0-x---------x-----0---0-x-------x---------x---0---x-0-----x---0---x-0-----x|
D|-------x---------x-----x-----x-------x---------x---2---x-------x---2---x-------x|
A|-------x---------x-----x-----x-------x---------x---3---x-3---3-x---3---x-3---3-x|
E|---0---x-0-------x-3---x-3---x---3---x-3-------x-------x-------x-------x-------x|

     O                 O
e|-2---2h3-2-3-2---x-2---2h3-2-3-2-0-0-0------------------------------------------|
B|---------x-----3-x---------x-------x--------------------------------------------|
G|---------x-------x---------x-------x--------------------------------------------|
D|---------x-------x---0-----x-0-----x--------------------------------------------|
A|---2-----x-2-----x---------x-------x--------------------------------------------|
E|---------x-------x---------x-------x--------------------------------------------|


Verse 2:

e|-------x-------x-------x-------x-------x-------x-------x---------x-------x------|
B|-------x-------x-------x-------x-------x-------x-------x---0h1-0-x-----1-x-1-1--|
G|---2/4-2-4-2-0-x---2/4-2-4-2-0-0-----4-2-4-2-0-x---2h4-2-4-------2-0---0-x-0-0--|
D|-------x-------x-------x-------x-4-2---x-------x-------x---------x---2---x-2----|
A|-------x-------x-------x-------x-------x-------x-------x---------x---3---x-3---3|
E|-0-----x-0-----x-0-----x-0-----x---3---x-3-----x-3-----x-3-------x-------x------|

                                                   O                   O
e|-x-------x-------x---------x-------x-------x-----------x---------x---------x----|
B|-x-----1-x-1-1---x-3-3/5-0-0---0---x-------x-3/5-3h5-0-x-1/3-1-0-x---3h5-0-x-1/3|
G|-x-----0-x-0-0---x---------x-2---2-x-2-----x-----4---0-x-2/4-2-0-x---4---0-x-2/4|
D|-x-2-2---x-2-----x---0-----x-0-----x---0-0-x-0---------x---------2-0-------x----|
A|-x---3---x-3---3-x---------x-------x-------x-----------x---------x---------x----|
E|-x-------x-------x---------x-------x-------x-----0-----x-0-------x---0-----x-0--|

       O                 O O
e|---x-0---x---------x------------------------------------------------------------|
B|-1-x---0-x-0h3-1-0-x------------------------------------------------------------|
G|-2-x-----x---------2-0-0-0------------------------------------------------------|
D|---x-----x---------x---0-0------------------------------------------------------|
A|---x-----x---------x---2-2------------------------------------------------------|
E|---x-3---x-3-------x---3-3------------------------------------------------------|


Chorus:
               O               O               O             O                 O
e|-----------------x-----x---------x-2-2h3-2-0-2h3-0-----3-2---0-x-2-2h3-2-0------|
B|-7-7/8-7-5-7-7/8-5---0-7/8-7---5-x---------x-----0---0-x-------x---------x-3-1--|
G|-------------0---0---0-0---0---0-x---------x-----0---0-x-------x---------x---0--|
D|-----------------x-----x---------x---------x-----x-----x-------x---------x---2--|
A|-----------------x-----x---------x---------x-----x-----x-------x---------x---3--|
E|-------------0---x-0---x-----0---x-0-------x-3---x-3---x---3---x-3-------x------|

                 O               O       O         O                 O         O
e|-3-x-3-3---x-----3-x-3-3---x-2---2h3-2-3-2---x-2---2h3-2-3-2-0-0-------x--------|
B|-1-x-1-1---x-1-1-1-x-1-1---x---------x-----3-x---------x-------x-7-7/8-5---0-7/8|
G|---x-0-----x---0---x-0-----x---------x-------x---------x-------x---0---0---0-0--|
D|---x-------x---2---x-------x---------x-------x---0-----x-0-----x-------x--------|
A|---x-3---3-x---3---x-3---3-x---2-----x-2-----x---------x-------x-------x--------|
E|---x-------x-------x-------x---------x-------x---------x-------x---0---x-0---0--|

     O               O             O                 O               O
e|-------x-2-2h3-2-0-2h3-0-----3-2---0-x-2-2h3-2-0-----3-x-3-3---x-----3-x-3-3---x|
B|-7---5-x---------x-----0---0-x-------x---------x-3-1-1-x-1-1---x-1-1-1-x-1-1---x|
G|-0---0-x---------x-----0---0-x-------x---------x---0---x-0-----x---0---x-0-----x|
D|-------x---------x-----x-----x-------x---------x---2---x-------x---2---x-------x|
A|-------x---------x-----x-----x-------x---------x---3---x-3---3-x---3---x-3---3-x|
E|---0---x-0-------x-3---x-3---x---3---x-3-------x-------x-------x-------x-------x|

     O                 O
e|-2---2h3-2-3-2---x-2---2h3-2-3-2-0-0-0------------------------------------------|
B|---------x-----3-x---------x-------x--------------------------------------------|
G|---------x-------x---------x-------x--------------------------------------------|
D|---------x-------x---0-----x-0-----x--------------------------------------------|
A|---2-----x-2-----x---------x-------x--------------------------------------------|
E|---------x-------x---------x-------x--------------------------------------------|


Outro:

e|-----x-----x-----------x-------x-------x-----x---------x-------x-------x-----x--|
B|-----x-----x-----------x-------x-------x-----x---------x-------x-------x-----x--|
G|-----x-----x-----------x-------x-------x-----x---0-0h2-x-0-----x-------x-----x--|
D|-----x-----2-4-4/5-5/7-x-5-4-0-x-0-0---x-----2-4-------x---4-0-x-0-0---x-----2-4|
A|-----x-----x-----------x-------x-------x-----x---------x-------x---3-3-x-3-3-x--|
E|-0-0-x-0-0-x---0-------x-0-----x---3-3-x-3-3-x---3-----x-3-----x-------x-----x--|

e|-------x-------x-------x---2---x-------x---2---x-----x---2---x-------x----------|
B|-------x-------x-------x---3-3-x-3-3---x---3-3-x-3-3-x---3-3-x-3-3---x----------|
G|-0-0h2-x-0-----x-------x---4-4-x-4-4---x---4-4-x-4-4-x---2-2-x-2-2---x----------|
D|-------x---4-0-x-0-0---x---4---x---4---x---4---x---4-x---0---x---0-0-x-0-0-VV?--|
A|-3-----x-3-----x---2-2-x-2-2---x---2-2-x-2-4---x---2-x-2-V---x-------x----------|
E|-------x-------x-------x---V---x-------x---V---x-----x-------x-------x----------|

e|---x-------x-------x-----x-----x-------x-------x-----x-----0-----0-x-----0-x---0|
B|---0-----0-x-----0-x---0-x-----0-----0-x-----0-x---0-x-----0-----0-x-----0-x---0|
G|---0-----0-x-----0-x---0-x-----0-----0-x-----0-x---0-x-----0-----0-x-----0-x---0|
D|---2-----2-x-----2-x---2-x-----0-----0-x-----0-x---0-x-----x-------x-------x----|
A|---x-------x-------x-----x-----x-------x-------x-----x-2-3-x-3-3---x-3-3---x-3--|
E|-0-x-0-0---x-0-0---x-0---x-2-3-x-3-3---x-3-3---x-3---x-----x-------x-------x----|

e|-x-----x-------x---2-x---2-x----------------------------------------------------|
B|-x-----3-----3-x---3-x---3-x----------------------------------------------------|
G|-x-----2-----2-x---2-x---2-x----------------------------------------------------|
D|-x-----4-----4-x-0---x-0---x----------------------------------------------------|
A|-x-3-2-x-2-2---x-----x-----x----------------------------------------------------|
E|-x-----x-------x-----x-----x-2-2/3----------------------------------------------|


******************

V = strum down
? = strum up
x = slap strings
O = wrist bump
\ = slide down
/ = slide up
h = hammer on
p = pull off

******************

Other versions of Señorita

SenoritaChords
Senorita (Ver. 2)Chords
Senorita (Ver. 3)Chords
Senorita (Ver. 4)Chords
Senorita (Ver. 5)Chords
Senorita (Ver. 6)Chords
Senorita (Ver. 7)Chords
Senorita (Ver. 2)Tabs
Senorita (Ver. 3)Tabs
Senorita - introTabs
data-matched-content-ui-type="image_card_stacked"

Almost there ...

Sign in to get your own page with links to favourite songs and more. You are just one click away...

Login with Facebook Login with Google