Search tabs and chords

Search for song, artist or band

Log in

One click and you are in

Login with Facebook Login with Google

Why sign up and log in

Guitar Tabs Explorer
Shawn Mendes guitar tabs for Señorita

Intro

Tuning: Standard (E chord diagramEE A chord diagramAA D chord diagramDD G chord diagramGG B chord diagramBB E chord diagramEE)

Key: Am chord diagramAmAm

Difficulty: Intermediate

Intro:

Acoustic guitar:

   Am chord diagramAmAm                                               Cmaj7 chord diagramCmaj7Cmaj7
e|------------------------------------------------|------------------------------------------------|
B|-------1--------1--x--------1--x--------1--x----|-------5--------5--x--------5--x--------5--x----|
G|-------2--------2--x--------2--x--------2--x----|-------4--------4--x--------4--x--------4--x----|
D|----------2--2-----x-----------x-----2-----x----|----------5--5-----x-----------x-----5-----x----|
A|-0-----------------x--0--------x--0--------x----|-3-----------------x--3--------x--3--------x----|
E|------------------------------------------------|------------------------------------------------|

   Fmaj7 chord diagramFmaj7Fmaj7                                            Em7 chord diagramEm7Em7                  G chord diagramGG
e|------------------------------------------------|------------------------------------------------|
B|-------10-------10-x--------10-x--------10-x----|-------8--------8--x--------12-x--------12-x----|
G|-------9--------9--x--------9--x--------9--x----|-------7--------7--x--------12-x--------12-x----|
D|----------10-10----x-----------x-----10----x----|-------9--------9--x-----------x-----12----x----|
A|-8-----------------x--8--------x--8--------x----|-7--------7--7-----x--10-------x--10-------x----|
E|------------------------------------------------|------------------------------------------------|


Bass melody:

   Am chord diagramAmAm                                               Cmaj7 chord diagramCmaj7Cmaj7
e|------------------------------------------------|------------------------------------------------|
B|------------------------------------------------|------------------------------------------------|
G|------------------------------------------------|------------------------------------------------|
D|----------------------------------------5-------|----------5--5-----------------------5/-5-------|
A|----------7--7-----------------------7-----7--5-|-3--------------------3-----------3--------7--5-|
E|-5--------------------5-----------5-------------|------------------------------------------------|

   Fmaj7 chord diagramFmaj7Fmaj7                                            Em7 chord diagramEm7Em7                  G chord diagramGG
e|------------------------------------------------|------------------------------------------------|
B|------------------------------------------------|------------------------------------------------|
G|------------------------------------------------|------------------------------------------------|
D|----------------------------------------2-------|------------------------------------------------|
A|----------3--3-----------------------3-----3--0-|-------------2--0--2-----------------5--3--5----|
E|-1--------------------1-----------1-------------|-0--------0-----------3-----------3-----------3-|

Treble melody:

   Am chord diagramAmAm                                               Cmaj7 chord diagramCmaj7Cmaj7
e|-8-----------------8--7--------------8--7-----7-|-8-----------------8--7--------------8--7-------|
B|-------10-------------------8-----8--------10---|-------8-------------------8------8--------10-8-|
G|-------------9----------------------------------|-------------9----------------------------------|
D|------------------------------------------------|------------------------------------------------|
A|------------------------------------------------|------------------------------------------------|
E|------------------------------------------------|------------------------------------------------|

   Fmaj7 chord diagramFmaj7Fmaj7                                            Em7 chord diagramEm7Em7                  G chord diagramGG
e|------8---8--8----------------8---8--8--------7-|----8--7--8--7--------7-----8--7--8--7----------|----|
B|------------------------------------------------|----------------8-----------------------8-----8-|-10-|
G|-10-------------------10-10---------------------|------------------------------------------------|----|
D|------------------------------------------------|------------------------------------------------|----|
A|------------------------------------------------|------------------------------------------------|----|
E|------------------------------------------------|------------------------------------------------|----|


************************************

| x  Slap strings
| /  Slide up

************************************

Other versions of Señorita

SenoritaChords
Senorita (Ver. 2)Chords
Senorita (Ver. 3)Chords
Senorita (Ver. 4)Chords
Senorita (Ver. 5)Chords
Senorita (Ver. 6)Chords
Senorita (Ver. 7)Chords
Senorita ukuleleChords
SenoritaTabs
Senorita (Ver. 2)Tabs

Almost there ...

Sign in to get your own page with links to favourite songs and more. You are just one click away...

Login with Facebook Login with Google