Log in

One click and you are in

Login with Facebook Login with Google

Why sign up and log in

Guitar Tabs Explorer
Shawn Mendes bass tabs for Señorita

Bass tabs with lyrics

Tuning: Standard (E A D G)
Key: Am
Difficulty: Novice

Señorita by Shawn Mendes & Camila Cabello
Written by Shawn Mendes, Camila Cabello et al.
Bass by Andrew "watt." Wotman

Tuning: Standard (E-A-D-G)
Key: Am (A-B-C-D-E-F-G)
BPM: 116
Time: 4/4


 Intro:
  Am                  Cmaj7
  Q  E E Q  E E  +E E E E E E E E  Q  E E Q  E E  +E E E E E E E E
G|------------------|---------2-0------|------------------|---------5\0------|
D|-----r-2-2---r----|-----r-------2-0--|-----r-5-5---r----|-----r-------2-0--|
A|-0-------------0--|(0)0---0----------|-3-------------3--|(3)3---3----------|
E|------------------|------------------|------------------|------------------|

  Fmaj7                 Em7        G
  Q  E E Q  E E  +E E E E E E E E  Q  E E E E E E  E E E E E E E E
G|------------------|------------------|------------------|------------------|
D|-----r-------r----|-----r---3-2------|-----r------------|-----r------------|
A|-------3-3--------|-------------3-0--|---------2-0-2----|---------5-3-5----|
E|-1-------------1--|(1)1---1----------|-0-----0-------3--|(3)3---3-------4--|


 Chorus:
  Am                  Cmaj7
  Q  E E Q  E E  +E E E E E E E E  Q  E E Q  E E  +E E E E E E E E
G|------------------|---------2-0------|------------------|---------5\0------|
D|-----r-2-2---r----|-----r-------2-0--|-----r-5-5---r----|-----r-------2-0--|
A|-0-------------0--|(0)0---0----------|-3-------------3--|(3)3---3----------|
E|------------------|------------------|------------------|------------------|

  Fmaj7                 Em7        G
  Q  E E Q  E E  +E E E E E E E E  Q  E E E E E E  E E E E E E E E
G|------------------|------------------|------------------|------------------|
D|-----r-------r----|-----r---3-2------|-----r------------|-----r------------|
A|-------3-3--------|-------------3-0--|---------2-0-2----|---------5-3-5----|
E|-1-------------1--|(1)1---1----------|-0-----0-------3--|(3)3---3-------4--|

 Verse 1:
  Am                  Cmaj7
  Q  E E Q  E E  +E E E E E E E E  Q  E E Q  E E  +E E E E E E E E
G|------------------|---------2-0------|------------------|---------5\0------|
D|-----r-2-2---r----|-----r-------2-0--|-----r-5-5---r----|-----r-------2-0--|
A|-0-------------0--|(0)0---0----------|-3-------------3--|(3)3---3----------|
E|------------------|------------------|------------------|------------------|

  Fmaj7                 Em7        G
  Q  E E Q  E E  +E E E E E E E E  Q  E E E E E E  E E E E E E E E
G|------------------|------------------|------------------|------------------|
D|-----r-------r----|-----r---3-2------|-----r------------|-----r------------|
A|-------3-3--------|-------------3-0--|---------2-0-2----|---------5-3-5----|
E|-1-------------1--|(1)1---1----------|-0-----0-------3--|(3)3---3-------4--|


 Verse 2:
  Am                  Cmaj7
  Q  E E Q  E E  +E E E E E E E E  Q  E E Q  E E  +E E E E E E E E
G|------------------|---------2-0------|------------------|---------5\0------|
D|-----r-2-2---r----|-----r-------2-0--|-----r-5-5---r----|-----r-------2-0--|
A|-0-------------0--|(0)0---0----------|-3-------------3--|(3)3---3----------|
E|------------------|------------------|------------------|------------------|

  Fmaj7                 Em7        G
  Q  E E Q  E E  +E E E E E E E E  Q  E E E E E E  E E Q  H
G|------------------|------------------|------------------|------------------|
D|-----r-------r----|-----r---3-2------|-----r------------|-----r---r--------|
A|-------3-3--------|-------------3-0--|---------2-0-2----|------------------|
E|-1-------------1--|(1)1---1----------|-0-----0-------3--|(3)3--------------|


 Chorus:
  Am                  Cmaj7
  Q  E E Q  E E  +E E E E E E E E  Q  E E Q  E E  +E E E E E E E E
G|------------------|---------2-0------|------------------|---------5\0------|
D|-----r-2-2---r----|-----r-------2-0--|-----r-5-5---r----|-----r-------2-0--|
A|-0-------------0--|(0)0---0----------|-3-------------3--|(3)3---3----------|
E|------------------|------------------|------------------|------------------|

  Fmaj7                 Em7        G
  Q  E E Q  E E  +E E E E E E E E  Q  E E E E E E  E E E E E E E E
G|------------------|------------------|------------------|------------------|
D|-----r-------r----|-----r---3-2------|-----r------------|-----r------------|
A|-------3-3--------|-------------3-0--|---------2-0-2----|---------5-3-5----|
E|-1-------------1--|(1)1---1----------|-0-----0-------3--|(3)3---3-------4--|

  Am                  Cmaj7
  Q  E E Q  E E  +E E E E E E E E  Q  E E Q  E E  +E E E E E E E E
G|------------------|---------2-0------|------------------|---------5\0------|
D|-----r-2-2---r----|-----r-------2-0--|-----r-5-5---r----|-----r-------2-0--|
A|-0-------------0--|(0)0---0----------|-3-------------3--|(3)3---3----------|
E|------------------|------------------|------------------|------------------|

  Fmaj7                 Em7        G
  Q  E E Q  E E  +E E E E E E E E  Q  E E E E E E  E E E E E E E E
G|------------------|------------------|------------------|------------------|
D|-----r-------r----|-----r---3-2------|-----r------------|-----r------------|
A|-------3-3--------|-------------3-0--|---------2-0-2----|---------5-3-5----|
E|-1-------------1--|(1)1---1----------|-0-----0-------3--|(3)3---3-------4--|


 Verse 3:
  Am                  Cmaj7
  Q  E E Q  E E  +E E E E E E E E  Q  E E Q  E E  +E E E E E E E E
G|------------------|---------2-0------|------------------|---------5\0------|
D|-----r-2-2---r----|-----r-------2-0--|-----r-5-5---r----|-----r-------2-0--|
A|-0-------------0--|(0)0---0----------|-3-------------3--|(3)3---3----------|
E|------------------|------------------|------------------|------------------|

  Fmaj7                 Em7        G
  Q  E E Q  E E  +E E E E E E E E  Q  E E E E E E  E E Q  H
G|------------------|------------------|------------------|------------------|
D|-----r-------r----|-----r---3-2------|-----r------------|-----r---r--------|
A|-------3-3--------|-------------3-0--|---------2-0-2----|------------------|
E|-1-------------1--|(1)1---1----------|-0-----0-------3--|(3)3--------------|


 Bridge:
  Am                  Cmaj7       G
  Q  E E Q  E E  +E E E E E E E E  Q  E E Q  E E  E E E E H
G|------------------|---------2-0------|------------------|------------------|
D|-----r-2-2---r----|-----r-------2-0--|-----r-5-5---r----|---r---r-r--------|
A|-0-------------0--|(0)0---0----------|-3-------------3--|------------------|
E|------------------|------------------|------------------|-3---3------------|


 Chorus:
  Am                  Cmaj7
  Q  E E Q  E E  +E E E E E E E E  Q  E E Q  E E  +E E E E E E E E
G|------------------|---------2-0------|------------------|---------5\0------|
D|-----r-2-2---r----|-----r-------2-0--|-----r-5-5---r----|-----r-------2-0--|
A|-0-------------0--|(0)0---0----------|-3-------------3--|(3)3---3----------|
E|------------------|------------------|------------------|------------------|

  Fmaj7                 Em7        G
  Q  E E Q  E E  +E E E E E E E E  Q  E E E E E E  E E E E E E E E
G|------------------|------------------|------------------|------------------|
D|-----r-------r----|-----r---3-2------|-----r------------|-----r------------|
A|-------3-3--------|-------------3-0--|---------2-0-2----|---------5-3-5----|
E|-1-------------1--|(1)1---1----------|-0-----0-------3--|(3)3---3-------4--|

  Am                  Cmaj7
  Q  E E Q  E E  +E E E E E E E E  Q  E E Q  E E  +E E E E E E E E
G|------------------|---------2-0------|------------------|---------5\0------|
D|-----r-2-2---r----|-----r-------2-0--|-----r-5-5---r----|-----r-------2-0--|
A|-0-------------0--|(0)0---0----------|-3-------------3--|(3)3---3----------|
E|------------------|------------------|------------------|------------------|

  Fmaj7                 Em7        G
  Q  E E Q  E E  +E E E E E E E E  Q  E E E E E E  E E E E E E E E
G|------------------|------------------|------------------|------------------|
D|-----r-------r----|-----r---3-2------|-----r------------|-----r------------|
A|-------3-3--------|-------------3-0--|---------2-0-2----|---------5-3-5----|
E|-1-------------1--|(1)1---1----------|-0-----0-------3--|(3)3---3-------4--|


 Outro:
  Am                  Cmaj7
  Q  E E Q  E E  +E E E E E E E E  Q  E E Q  E E  +E E E E E E E E
G|------------------|---------2-0------|------------------|---------5\0------|
D|-----r-2-2---r----|-----r-------2-0--|-----r-5-5---r----|-----r-------2-0--|
A|-0-------------0--|(0)0---0----------|-3-------------3--|(3)3---3----------|
E|------------------|------------------|------------------|------------------|

  Fmaj7                 Em7        G
  Q  E E Q  E E  +E E E E E E E E  Q  E E E E E E  E E E E E E E E
G|------------------|------------------|------------------|------------------|
D|-----r-------r----|-----r---3-2------|-----r------------|-----r------------|
A|-------3-3--------|-------------3-0--|---------2-0-2----|---------5-3-5----|
E|-1-------------1--|(1)1---1----------|-0-----0-------3--|(3)3---3-------4--|

  Am                  Cmaj7
  Q  E E Q  E E  +E E E E E E E E  Q  E E Q  E E  +E E E E E E E E
G|------------------|---------2-0------|------------------|---------5\0------|
D|-----r-2-2---r----|-----r-------2-0--|-----r-5-5---r----|-----r-------2-0--|
A|-0-------------0--|(0)0---0----------|-3-------------3--|(3)3---3----------|
E|------------------|------------------|------------------|------------------|

  Fmaj7                 Em7        G
  Q  E E Q  E E  +E E E E E E E E  Q  E E E E E E  E E E E E E E E
G|------------------|------------------|------------------|------------------|
D|-----r-------r----|-----r---3-2------|-----r------------|-----r------------|
A|-------3-3--------|-------------3-0--|---------2-0-2----|---------5-3-5----|
E|-1-------------1--|(1)1---1----------|-0-----0-------3--|(3)3---3-------4--|

***********************************
|H - Half note
|Q - Quarter note
|E - Eight note
|+ - Tied note duration
|* - Repeat section
|()- Tied note
|r - Rest
|\ - Slide down
***********************************

↓ Add and view comments below ↓

What do you think about this song and these tabs?

Add your comments, questions, rant or a thumbs up below.

Almost there ...

Sign in to get your own page with links to favourite songs and more. You are just one click away...

Login with Facebook Login with Google