Search tabs and chords

Search for song, artist or band

Log in

One click and you are in

Login with Facebook Login with Google

Why sign up and log in

Guitar Tabs Explorer
Shawn Mendes guitar chords for Señorita (Ver. 6)

Guitar chords with lyrics

Tuning: Standard (E A D G B E)

Key: A chord diagramA minorAm

Difficulty: Novice

      E-A-D-G-B-e
A chord diagramAm7Am7   x-0-2(2)1-0 (= A chord diagramA minorAm)
A chord diagramCmaj7Cmaj7 x-3-2-0(1)0 (= A chord diagramC majorC)
A chord diagramFmaj7Fmaj7 1-3-2-2-1-1
A chord diagramE minor 7Em7   0-2(2)0-0-0 (= A chord diagramE minorEm)
A chord diagramG MajorG     3-2-0-0-0(3)

Intro Tab:

      A chord diagramAm7Am7                            A chord diagramC majorC
e||-----------------------------------------------------------------------------------------|
B||---1-------1-0----0-0h1-0---------1-------1-0----0-0h1-0---------------------------------|
G||------2--------0----------0h2p0------0--------0----------0h2p0---------------------------|
D||---------2------------------------------2------------------------------------------------|
A||---0------------------------------3------------------------------------------------------|
E||-----------------------------------------------------------------------------------------|
      A chord diagramFF                    A chord diagramE minor 7Em7           A chord diagramG MajorG
e||-----------------------------------------------------------------------------------------|
B||------1-1-1------1-1-1--0--1-0-1-0----0--1-0-1-0-----------------------------------------|
G||-----------------------------------0-------------0--0h2----------------------------------|
D||---3---------3-3-------------------------------------------------------------------------|
A||----------------------------------------------------0------------------------------------|
E||---1-----------1--------0-------------3--------------------------------------------------|


Chorus 1:
                   A chord diagramAm7Am7
I love it when you call me señorita
                  A chord diagramCmaj7Cmaj7
I wish I could pretend I didn't need ya
                   A chord diagramFmaj7Fmaj7
But every touch is ooh-la-la-la, it's true la-la-la
A chord diagramE minor 7Em7
Ooh, I should be runnin'
A chord diagramG MajorG
Ooh, you keep me comin' for ya

Verse 1:
A chord diagramAm7Am7                                        A chord diagramCmaj7Cmaj7
Land in Miami, the air was hot from summer rain
                                              A chord diagramFmaj7Fmaj7
Sweat drippin' off me, before I even knew her name, la-la-la
             A chord diagramE minor 7Em7             A chord diagramG MajorG
It felt like ooh-la-la-la, yeah, no

A chord diagramAm7Am7                                             A chord diagramCmaj7Cmaj7
Sapphire, moonlight, we danced for hours in the sand
                                           A chord diagramFmaj7Fmaj7
Tequila, sunrise, her body fit right in my hands, la-la-la
             A chord diagramE minor 7Em7           A chord diagramG MajorG
It felt like ooh-la-la-la, yeah


Chorus 2:
N.C.               A chord diagramAm7Am7
I love it when you call me señorita
                  A chord diagramCmaj7Cmaj7
I wish I could pretend I didn't need ya
                   A chord diagramFmaj7Fmaj7
But every touch is ooh-la-la-la, it's true la-la-la
A chord diagramE minor 7Em7
Ooh, I should be runnin'
A chord diagramG MajorG
Ooh, you know I love it when you

A chord diagramAm7Am7
Call me señorita
                 A chord diagramCmaj7Cmaj7
I wish it wasn't so damn hard to leave ya
                   A chord diagramFmaj7Fmaj7
But every touch is ooh-la-la-la, it's true la-la-la
A chord diagramE minor 7Em7
Ooh, I should be runnin'
A chord diagramG MajorG
Ooh, you keep me comin' for ya


Verse 2:
A chord diagramAm7Am7                                                      A chord diagramCmaj7Cmaj7
Locked in the hotel, there's just some things that never change
                                                               A chord diagramFmaj7Fmaj7
You say we're just friends, but friends don't know the way you taste, la-la-la
           A chord diagramE minor 7Em7                                             A chord diagramG MajorG        N.C.
'Cause you know it's been a long time comin', don't ya let me fall, ooh ooh-ooh-ah-ah


Pre-chorus:
A chord diagramAm7Am7
Ooh, when your lips undress me, hooked on your tongue
A chord diagramCmaj7Cmaj7                          A chord diagramE7E7
Ooh love, your kiss is deadly, don't stop


Chorus 3:
N.C.               A chord diagramAm7Am7
I love it when you call me señorita
                  A chord diagramCmaj7Cmaj7
I wish I could pretend I didn't need ya
                   A chord diagramFmaj7Fmaj7
But every touch is ooh-la-la-la, it's true la-la-la
A chord diagramE minor 7Em7
Ooh, I should be runnin'
A chord diagramG MajorG
Ooh, you know I love it when you

A chord diagramAm7Am7
When you call me señorita
                 A chord diagramCmaj7Cmaj7
I wish it wasn't so damn hard to leave ya
                   A chord diagramFmaj7Fmaj7
But every touch is ooh-la-la-la, it's true la-la-la
A chord diagramE minor 7Em7
Ooh, I should be runnin'
A chord diagramG MajorG
Ooh, you keep me comin' for ya


Bridge:
A chord diagramAm7Am7                            A chord diagramCmaj7Cmaj7
All along I've been comin' for ya (for you)
                                 A chord diagramFmaj7Fmaj7
And I hope it meant something to ya (ooh ooh-ooh-ooh)
                                 A chord diagramE minor 7Em7
Call my name, I'll be comin' for ya  (comin' for ya)
           A chord diagramG MajorG
Comin' for ya, for ya-ah-ah-ah (comin' for ya)


Outro:
      A chord diagramAm7Am7                            A chord diagramC majorC
e||-----------------------------------------------------------------------------------------|
B||---1-------1-0----0-0h1-0---------1-------1-0----0-0h1-0---------------------------------|
G||------2--------0----------0h2p0------0--------0----------0h2p0---------------------------|
D||---------2------------------------------2------------------------------------------------|
A||---0------------------------------3------------------------------------------------------|
E||-----------------------------------------------------------------------------------------|
      A chord diagramFF                    A chord diagramE minor 7Em7           A chord diagramG MajorG
e||-----------------------------------------------------------------------------------------|
B||------1-1-1------1-1-1--0--1-0-1-0----0--1-0-1-0-----------------------------------------|
G||-----------------------------------0-------------0--0h2----------------------------------|
D||---3---------3-3-------------------------------------------------------------------------|
A||----------------------------------------------------0------------------------------------|
E||---1-----------1--------0-------------3--------------------------------------------------|

A chord diagramAm7Am7              A chord diagramCmaj7Cmaj7
For ya-ah-ah-ah (ooh, she loves it when I come)
             A chord diagramFmaj7Fmaj7
For ya-ah-ah-ah
A chord diagramE minor 7Em7
Ooh, I should be runnin'
A chord diagramG MajorG                           A chord diagramA minorAm
Ooh, you keep me comin' for ya



************************************

| (n)  Ghost note
| h    Hammer-on
| p    Pull-off

************************************

Other versions of Señorita

SenoritaChords
Senorita (Ver. 2)Chords
Senorita (Ver. 3)Chords
Senorita (Ver. 4)Chords
Senorita (Ver. 5)Chords
Senorita (Ver. 7)Chords
SenoritaTabs
Senorita (Ver. 2)Tabs
Senorita (Ver. 3)Tabs
Senorita - introChords

Almost there ...

Sign in to get your own page with links to favourite songs and more. You are just one click away...

Login with Facebook Login with Google