Search tabs and chords

Search for song, artist or band

Log in

One click and you are in

Login with Facebook Login with Google

Why sign up and log in

Guitar Tabs Explorer
Shawn Mendes guitar tabs for Señorita (Ver. 2)

Guitar tabs with lyrics

Tuning: Standard (E A D G B E)

Difficulty: Intermediate

NOTE:
"I" indicates fretting with index finger, "m" with middle finger, "r" with ring finger, and "p" with pinky
(This might be an unusual diagram format, but it's what you see when looking over the top of the neck)

A chord diagramA minorAm Chord
e||---|---|---|---|-i-|---|---|---|---|---|---|---|
B||---|---|---|---|-i-|---|---|---|---|---|---|---|
G||---|---|---|---|-i-|---|---|---|---|---|---|---|
D||---|---|---|---|-i-|---|---|---|---|---|---|---|
A||---|---|---|---|-i-|---|-r-|---|---|---|---|---|
E||---|---|---|---|-i-|---|---|---|---|---|---|---|

A chord diagramCmaj7Cmaj7 Chord
e||---|---|-i-|---|---|---|---|---|---|---|---|---|
B||---|---|-i-|---|-p-|---|---|---|---|---|---|---|
G||---|---|-i-|-m-|---|---|---|---|---|---|---|---|
D||---|---|-i-|---|-r-|---|---|---|---|---|---|---|
A||---|---|-i-|---|---|---|---|---|---|---|---|---|
E||---|---|-i-|---|---|---|---|---|---|---|---|---|

A chord diagramFF Chord
e||---|---|---|---|---|---|---|-i-|---|---|---|---|
B||---|---|---|---|---|---|---|-i-|---|-r-|---|---|
G||---|---|---|---|---|---|---|-i-|---|-r-|---|---|
D||---|---|---|---|---|---|---|-i-|---|-r-|---|---|
A||---|---|---|---|---|---|---|-i-|---|---|---|---|
E||---|---|---|---|---|---|---|-i-|---|---|---|---|

A chord diagramE minor 7Em7 Chord
e||---|---|---|---|---|---|-i-|---|---|---|---|---|
B||---|---|---|---|---|---|-i-|-m-|---|---|---|---|
G||---|---|---|---|---|---|-i-|---|---|---|---|---|
D||---|---|---|---|---|---|-i-|---|-r-|---|---|---|
A||---|---|---|---|---|---|-i-|---|---|---|---|---|
E||---|---|---|---|---|---|-i-|---|---|---|---|---|

A chord diagramG MajorG Chord
e||---|---|---|---|---|---|---|---|---|-i-|---|---|
B||---|---|---|---|---|---|---|---|---|-i-|---|-r-|
G||---|---|---|---|---|---|---|---|---|-i-|---|-r-|
D||---|---|---|---|---|---|---|---|---|-i-|---|-r-|
A||---|---|---|---|---|---|---|---|---|-i-|---|---|
E||---|---|---|---|---|---|---|---|---|-i-|---|---|



***********************************
"b" indicates downwards pluck of bass note
"i" indicates upwards pluck of strings with index finger
"m" indicates upwards pluck of strings with middle finger
"r" indicates upwards pluck of strings with ring finger
***********************************

Intro:
    A chord diagramA minorAm                Riff           A chord diagramCmaj7Cmaj7             Riff         A chord diagramFF                   Riff
e|---r-----r---r-----|-----------|--------------------|-----------|--------------------|-----------|
B|---m-----m---m-----|-----------|--r-----r---r-----r-|-----------|--r-----r---r-----r-|-----------|
G|---i-----i---i-----|-5---5-----|--m-----m---m-----m-|-5---5-----|--m-----m---m-----m-|-5---5-----|
D|-------------------|-5h7-5-----|--i-----i---i-----i-|-5h7-5-----|--i-----i---i-----i-|-5h7-5-----|
A|-----b-b-------b-b-|-------7-5-|----b-b-------b-b---|-------7-5-|----b-b-------b-b---|-------7-5-|
E|-b---------b-------|-----------|-b--------b---------|-----------|-b--------b---------|-----------|

A chord diagramE minor 7Em7        A chord diagramG MajorG
e|----------|----------|
B|--r-----r-|--r-----r-|
G|--m-----m-|--m-----m-|
D|--i-----i-|--i-----i-|
A|----b-b---|----b-b---|
E|-b--------|-b--------|



Chorus:(Camila Cabello)
   A chord diagramA minorAm                 Riff           A chord diagramCmaj7Cmaj7             Riff         A chord diagramFF                   Riff
e|---r-----r---r-----|-----------|--------------------|-----------|--------------------|-----------|
B|---m-----m---m-----|-----------|--r-----r---r-----r-|-----------|--r-----r---r-----r-|-----------|
G|---i-----i---i-----|-5---5-----|--m-----m---m-----m-|-5---5-----|--m-----m---m-----m-|-5---5-----|
D|-------------------|-5h7-5-----|--i-----i---i-----i-|-5h7-5-----|--i-----i---i-----i-|-5h7-5-----|
A|-----b-b-------b-b-|-------7-5-|----b-b-------b-b---|-------7-5-|----b-b-------b-b---|-------7-5-|
E|-b---------b-------|-----------|-b--------b---------|-----------|-b--------b---------|-----------|

A chord diagramE minor 7Em7        A chord diagramG MajorG
e|----------|----------|
B|--r-----r-|--r-----r-|
G|--m-----m-|--m-----m-|
D|--i-----i-|--i-----i-|
A|----b-b---|----b-b---|
E|-b--------|-b--------|



Verse 1: (Shawn Mendes)
  A chord diagramA minorAm                  A chord diagramCmaj7Cmaj7                A chord diagramFF                    A chord diagramE minor 7Em7        A chord diagramG MajorG
e|---r-----r---r-----|--------------------|--------------------|----------|----------|
B|---m-----m---m-----|--r-----r---r-----r-|--r-----r---r-----r-|--r-----r-|--r-----r-|
G|---i-----i---i-----|--m-----m---m-----m-|--m-----m---m-----m-|--m-----m-|--m-----m-|
D|-------------------|--i-----i---i-----i-|--i-----i---i-----i-|--i-----i-|--i-----i-|
A|-----b-b-------b-b-|----b-b-------b-b---|----b-b-------b-b---|----b-b---|----b-b---|
E|-b---------b-------|-b--------b---------|-b--------b---------|-b--------|-b--------|

 A chord diagramA minorAm                   A chord diagramCmaj7Cmaj7                A chord diagramFF                    A chord diagramE minor 7Em7        A chord diagramG MajorG
e|---r-----r---r-----|--------------------|--------------------|----------|----------|
B|---m-----m---m-----|--r-----r---r-----r-|--r-----r---r-----r-|--r-----r-|--r-----r-|
G|---i-----i---i-----|--m-----m---m-----m-|--m-----m---m-----m-|--m-----m-|--m-----m-|
D|-------------------|--i-----i---i-----i-|--i-----i---i-----i-|--i-----i-|--i-----i-|
A|-----b-b-------b-b-|----b-b-------b-b---|----b-b-------b-b---|----b-b---|----b-b---|
E|-b---------b-------|-b--------b---------|-b--------b---------|-b--------|-b--------|




Chorus:(Camila Cabello & Shawn Mendes)
    A chord diagramA minorAm                Riff           A chord diagramCmaj7Cmaj7             Riff         A chord diagramFF                   Riff
e|---r-----r---r-----|-----------|--------------------|-----------|--------------------|-----------|
B|---m-----m---m-----|-----------|--r-----r---r-----r-|-----------|--r-----r---r-----r-|-----------|
G|---i-----i---i-----|-5---5-----|--m-----m---m-----m-|-5---5-----|--m-----m---m-----m-|-5---5-----|
D|-------------------|-5h7-5-----|--i-----i---i-----i-|-5h7-5-----|--i-----i---i-----i-|-5h7-5-----|
A|-----b-b-------b-b-|-------7-5-|----b-b-------b-b---|-------7-5-|----b-b-------b-b---|-------7-5-|
E|-b---------b-------|-----------|-b--------b---------|-----------|-b--------b---------|-----------|

A chord diagramE minor 7Em7        A chord diagramG MajorG
e|----------|----------|
B|--r-----r-|--r-----r-|
G|--m-----m-|--m-----m-|
D|--i-----i-|--i-----i-|
A|----b-b---|----b-b---|
E|-b--------|-b--------|

  A chord diagramA minorAm                  Riff           A chord diagramCmaj7Cmaj7             Riff         A chord diagramFF                   Riff
e|---r-----r---r-----|-----------|--------------------|-----------|--------------------|-----------|
B|---m-----m---m-----|-----------|--r-----r---r-----r-|-----------|--r-----r---r-----r-|-----------|
G|---i-----i---i-----|-5---5-----|--m-----m---m-----m-|-5---5-----|--m-----m---m-----m-|-5---5-----|
D|-------------------|-5h7-5-----|--i-----i---i-----i-|-5h7-5-----|--i-----i---i-----i-|-5h7-5-----|
A|-----b-b-------b-b-|-------7-5-|----b-b-------b-b---|-------7-5-|----b-b-------b-b---|-------7-5-|
E|-b---------b-------|-----------|-b--------b---------|-----------|-b--------b---------|-----------|

A chord diagramE minor 7Em7        A chord diagramG MajorG
e|----------|----------|
B|--r-----r-|--r-----r-|
G|--m-----m-|--m-----m-|
D|--i-----i-|--i-----i-|
A|----b-b---|----b-b---|
E|-b--------|-b--------|




Verse 2:(Camila Cabello & Shawn Mendes)
  A chord diagramA minorAm                  A chord diagramCmaj7Cmaj7                A chord diagramFF                    A chord diagramE minor 7Em7        A chord diagramG MajorG
e|---r-----r---r-----|--------------------|--------------------|----------|----------|
B|---m-----m---m-----|--r-----r---r-----r-|--r-----r---r-----r-|--r-----r-|--r-----r-|
G|---i-----i---i-----|--m-----m---m-----m-|--m-----m---m-----m-|--m-----m-|--m-----m-|
D|-------------------|--i-----i---i-----i-|--i-----i---i-----i-|--i-----i-|--i-----i-|
A|-----b-b-------b-b-|----b-b-------b-b---|----b-b-------b-b---|----b-b---|----b-b---|
E|-b---------b-------|-b--------b---------|-b--------b---------|-b--------|-b--------|

  A chord diagramA minorAm                  A chord diagramCmaj7Cmaj7                A chord diagramFF                    A chord diagramE minor 7Em7        A chord diagramG MajorG
e|---r-----r---r-----|--------------------|--------------------|----------|----------|
B|---m-----m---m-----|--r-----r---r-----r-|--r-----r---r-----r-|--r-----r-|--r-----r-|
G|---i-----i---i-----|--m-----m---m-----m-|--m-----m---m-----m-|--m-----m-|--m-----m-|
D|-------------------|--i-----i---i-----i-|--i-----i---i-----i-|--i-----i-|--i-----i-|
A|-----b-b-------b-b-|----b-b-------b-b---|----b-b-------b-b---|----b-b---|----b-b---|
E|-b---------b-------|-b--------b---------|-b--------b---------|-b--------|-b--------|




Chorus:(Camila Cabello & Shawn Mendes)
  A chord diagramA minorAm                  Riff           A chord diagramCmaj7Cmaj7             Riff         A chord diagramFF                   Riff
e|---r-----r---r-----|-----------|--------------------|-----------|--------------------|-----------|
B|---m-----m---m-----|-----------|--r-----r---r-----r-|-----------|--r-----r---r-----r-|-----------|
G|---i-----i---i-----|-5---5-----|--m-----m---m-----m-|-5---5-----|--m-----m---m-----m-|-5---5-----|
D|-------------------|-5h7-5-----|--i-----i---i-----i-|-5h7-5-----|--i-----i---i-----i-|-5h7-5-----|
A|-----b-b-------b-b-|-------7-5-|----b-b-------b-b---|-------7-5-|----b-b-------b-b---|-------7-5-|
E|-b---------b-------|-----------|-b--------b---------|-----------|-b--------b---------|-----------|

A chord diagramE minor 7Em7        A chord diagramG MajorG
e|----------|----------|
B|--r-----r-|--r-----r-|
G|--m-----m-|--m-----m-|
D|--i-----i-|--i-----i-|
A|----b-b---|----b-b---|
E|-b--------|-b--------|

  A chord diagramA minorAm                  Riff           A chord diagramCmaj7Cmaj7             Riff         A chord diagramFF                   Riff
e|---r-----r---r-----|-----------|--------------------|-----------|--------------------|-----------|
B|---m-----m---m-----|-----------|--r-----r---r-----r-|-----------|--r-----r---r-----r-|-----------|
G|---i-----i---i-----|-5---5-----|--m-----m---m-----m-|-5---5-----|--m-----m---m-----m-|-5---5-----|
D|-------------------|-5h7-5-----|--i-----i---i-----i-|-5h7-5-----|--i-----i---i-----i-|-5h7-5-----|
A|-----b-b-------b-b-|-------7-5-|----b-b-------b-b---|-------7-5-|----b-b-------b-b---|-------7-5-|
E|-b---------b-------|-----------|-b--------b---------|-----------|-b--------b---------|-----------|

A chord diagramE minor 7Em7        A chord diagramG MajorG
e|----------|----------|
B|--r-----r-|--r-----r-|
G|--m-----m-|--m-----m-|
D|--i-----i-|--i-----i-|
A|----b-b---|----b-b---|
E|-b--------|-b--------|




Outro:(Camila Cabello & Shawn Mendes)
  A chord diagramA minorAm                  A chord diagramCmaj7Cmaj7                A chord diagramFF                    A chord diagramE minor 7Em7        A chord diagramG MajorG
e|---r-----r---r-----|--------------------|--------------------|----------|----------|
B|---m-----m---m-----|--r-----r---r-----r-|--r-----r---r-----r-|--r-----r-|--r-----r-|
G|---i-----i---i-----|--m-----m---m-----m-|--m-----m---m-----m-|--m-----m-|--m-----m-|
D|-------------------|--i-----i---i-----i-|--i-----i---i-----i-|--i-----i-|--i-----i-|
A|-----b-b-------b-b-|----b-b-------b-b---|----b-b-------b-b---|----b-b---|----b-b---|
E|-b---------b-------|-b--------b---------|-b--------b---------|-b--------|-b--------|



***********************************
| h   Hammer-on
| x   Dead note
***********************************

Other versions of Señorita

SenoritaChords
Senorita (Ver. 2)Chords
Senorita (Ver. 3)Chords
Senorita (Ver. 4)Chords
Senorita (Ver. 5)Chords
Senorita (Ver. 6)Chords
Senorita (Ver. 7)Chords
SenoritaTabs
Senorita (Ver. 3)Tabs
Senorita - introTabs

Almost there ...

Sign in to get your own page with links to favourite songs and more. You are just one click away...

Login with Facebook Login with Google