Search tabs and chords

Search for song, artist or band

Log in

One click and you are in

Login with Facebook Login with Google

Why sign up and log in

Guitar Tabs Explorer
Shawn Mendes guitar chords for Señorita (Ver. 2)

Guitar chords with lyrics

Tuning: Standard (E chord diagramEE A chord diagramAA D chord diagramDD G chord diagramGG B chord diagramBB E chord diagramEE)

Key: Am chord diagramAmAm

Difficulty: Novice

I'm still a beginner, so any suggestion is welcome.
On the left is the chords I use; if they are too difficult just use the ones on the right:

      E chord diagramEE-A chord diagramAA-D chord diagramDD-G chord diagramGG-B chord diagramBB-e
Am7 chord diagramAm7Am7   x-0-2(2)1-0 (= Am chord diagramAmAm)
Cmaj7 chord diagramCmaj7Cmaj7 x-3-2-0(1)0 (= C chord diagramCC)
Fmaj7 chord diagramFmaj7Fmaj7 1-3-2-2-1-1
Em7 chord diagramEm7Em7   0-2(2)0-0-0 (= Em chord diagramEmEm)
G chord diagramGG     3-2-0-0-0(3)

Intro Tab:

      Am7 chord diagramAm7Am7                            C chord diagramCC
e||-----------------------------------------------------------------------------------------|
B||---1-------1-0----0-0h1-0---------1-------1-0----0-0h1-0---------------------------------|
B||------2--------0----------0h2p0------0--------0----------0h2p0---------------------------|
B||---------2------------------------------2------------------------------------------------|
B||---0------------------------------3------------------------------------------------------|
E||-----------------------------------------------------------------------------------------|
      F chord diagramFF                    Em7 chord diagramEm7Em7           G chord diagramGG
e||-----------------------------------------------------------------------------------------|
B||------1-1-1------1-1-1--0--1-0-1-0----0--1-0-1-0-----------------------------------------|
B||-----------------------------------0-------------0---------------------------------------|
B||---3---------3-3-------------------------------------------------------------------------|
B||-----------------------------------------------------------------------------------------|
E||---1-----------1--------0-------------3--------------------------------------------------|


Chorus 1:
                   Am7 chord diagramAm7Am7
I love it when you call me señorita
                  Cmaj7 chord diagramCmaj7Cmaj7
I wish I could pretend I didn't need ya
                   Fmaj7 chord diagramFmaj7Fmaj7
But every touch is ooh-la-la-la, it's true la-la-la
Em7 chord diagramEm7Em7
Ooh, I should be runnin'
G chord diagramGG
Ooh, you keep me comin' for ya

Verse 1:
Am7 chord diagramAm7Am7                                        Cmaj7 chord diagramCmaj7Cmaj7
Land in Miami, the air was hot from summer rain
                                              Fmaj7 chord diagramFmaj7Fmaj7
Sweat drippin' off me, before I even knew her name, la-la-la
             Em7 chord diagramEm7Em7             G chord diagramGG
It felt like ooh-la-la-la, yeah, no

Am7 chord diagramAm7Am7                                             Cmaj7 chord diagramCmaj7Cmaj7
Sapphire, moonlight, we danced for hours in the sand
                                           Fmaj7 chord diagramFmaj7Fmaj7
Tequila, sunrise, her body fit right in my hands, la-la-la
             Em7 chord diagramEm7Em7           G chord diagramGG
It felt like ooh-la-la-la, yeah


Chorus 2:
N.C.               Am7 chord diagramAm7Am7
I love it when you call me señorita
                  Cmaj7 chord diagramCmaj7Cmaj7
I wish I could pretend I didn't need ya
                   Fmaj7 chord diagramFmaj7Fmaj7
But every touch is ooh-la-la-la, it's true la-la-la
Em7 chord diagramEm7Em7
Ooh, I should be runnin'
G chord diagramGG
Ooh, you know I love it when you

Am7 chord diagramAm7Am7
Call me señorita
                 Cmaj7 chord diagramCmaj7Cmaj7
I wish it wasn't so damn hard to leave ya
                   Fmaj7 chord diagramFmaj7Fmaj7
But every touch is ooh-la-la-la, it's true la-la-la
Em7 chord diagramEm7Em7
Ooh, I should be runnin'
G chord diagramGG
Ooh, you keep me comin' for ya


Verse 2:
Am7 chord diagramAm7Am7                                                      Cmaj7 chord diagramCmaj7Cmaj7
Locked in the hotel, there's just some things that never change
                                                               Fmaj7 chord diagramFmaj7Fmaj7
You say we're just friends, but friends don't know the way you taste, la-la-la
           Em7 chord diagramEm7Em7                                             G chord diagramGG        N.C.
'Cause you know it's been a long time comin', don't ya let me fall, ooh ooh-ooh-ah-ah

Pre-chorus:

Am7 chord diagramAm7Am7
Ooh, when your lips undress me, hooked on your tongue
Cmaj7 chord diagramCmaj7Cmaj7                          E chord diagramEE
Ooh love, your kiss is deadly, don't stop


Chorus 3:
N.C.               Am7 chord diagramAm7Am7
I love it when you call me señorita
                  Cmaj7 chord diagramCmaj7Cmaj7
I wish I could pretend I didn't need ya
                   Fmaj7 chord diagramFmaj7Fmaj7
But every touch is ooh-la-la-la, it's true la-la-la
Em7 chord diagramEm7Em7
Ooh, I should be runnin'
G chord diagramGG
Ooh, you know I love it when you

Am7 chord diagramAm7Am7
When you call me señorita
                 Cmaj7 chord diagramCmaj7Cmaj7
I wish it wasn't so damn hard to leave ya
                   Fmaj7 chord diagramFmaj7Fmaj7
But every touch is ooh-la-la-la, it's true la-la-la
Em7 chord diagramEm7Em7
Ooh, I should be runnin'
G chord diagramGG
Ooh, you keep me comin' for ya


Bridge:
Am7 chord diagramAm7Am7                            Cmaj7 chord diagramCmaj7Cmaj7
All along I've been comin' for ya (for you)
                                 Fmaj7 chord diagramFmaj7Fmaj7
And I hope it meant something to ya (ooh ooh-ooh-ooh)
                                 Em7 chord diagramEm7Em7
Call my name, I'll be comin' for ya  (comin' for ya)
           G chord diagramGG
Comin' for ya, for ya-ah-ah-ah (comin' for ya)


Outro:
      Am7 chord diagramAm7Am7                            C chord diagramCC
e||-----------------------------------------------------------------------------------------|
B||---1-------1-0----0-0h1-0---------1-------1-0----0-0h1-0---------------------------------|
B||------2--------0----------0h2p0------0--------0----------0h2p0---------------------------|
B||---------2------------------------------2------------------------------------------------|
B||---0------------------------------3------------------------------------------------------|
E||-----------------------------------------------------------------------------------------|
      F chord diagramFF                    Em7 chord diagramEm7Em7           G chord diagramGG
e||-----------------------------------------------------------------------------------------|
B||------1-1-1------1-1-1--0--1-0-1-0----0--1-0-1-0-----------------------------------------|
B||-----------------------------------0-------------0---------------------------------------|
B||---3---------3-3-------------------------------------------------------------------------|
B||-----------------------------------------------------------------------------------------|
E||---1-----------1--------0-------------3--------------------------------------------------|

Am7 chord diagramAm7Am7              Cmaj7 chord diagramCmaj7Cmaj7
For ya-ah-ah-ah (ooh, she loves it when I come)
             Fmaj7 chord diagramFmaj7Fmaj7
For ya-ah-ah-ah
Em7 chord diagramEm7Em7
Ooh, I should be runnin'
G chord diagramGG                           Am chord diagramAmAm
Ooh, you keep me comin' for ya



************************************

| (n)  Ghost note
| h    Hammer-on
| p    Pull-off

************************************

Other versions of Señorita

SenoritaChords
Senorita (Ver. 3)Chords
Senorita (Ver. 4)Chords
Senorita (Ver. 5)Chords
Senorita (Ver. 6)Chords
Senorita (Ver. 7)Chords
Senorita ukuleleChords
SenoritaTabs
Senorita (Ver. 2)Tabs
Senorita - introChords

Almost there ...

Sign in to get your own page with links to favourite songs and more. You are just one click away...

Login with Facebook Login with Google