Search tabs and chords

Search for song, artist or band

Log in

One click and you are in

Login with Facebook Login with Google

Why sign up and log in

Guitar Tabs Explorer
Shawn Mendes guitar tabs for Ruin

Solo tabs

Second Guitar verse: The lick played varies between the verse and intro

e|---x-------|--------|----|-------------------------------------------------|
B|---7h8ph8p-|-7------|-7--|-------------------------------------------------|
G|---7-------|---7----|-7--|-------------------------------------------------|
D|---7-------|-----7--|-7--|-------------------------------------------------|
A|-----------|--------|----|-------------------------------------------------|
E|-----------|--------|----| ------------------------------------------------|

Second guitar chorus:

e|-------------------5--5----------------------------------------------------|
B|--5--5-----7--7----5----5--------------------------------------------------|
G|--6----6---7----7----------------------------------------------------------|
D|--7--------9-------7------7------------------------------------------------|
A|---------------------------------------------------------------------------|
E|---------------------------------------------------------------------------|
Intro:

e|---------------------------------------------------------------------------|
B|---------------------------------------------------------------------------|
G|--7--7--7--7--7--7--7--7--7--7--7--7---------------------------------------|
D|--7--7--7--7--7--7--7--7--7--7--7--7---5--5--5--5--5--5--5--5--5--5--5--5--|
A|--5--5--5--5--5--5--5--5--5--5--5--5---5--5--5--5--5--5--5--5--5--5--5--3--|
E|---------------------------------------3--3--3--3--3--3--3--3--3--3--3--5--|


Verse:

e|---------------------------------------------------------------------------|
B|---------------------------------------------------------------------------|
G|--7--7--7--7--7--7--7--7--7--7--7--7---------------------------------------|
D|--7--7--7--7--7--7--7--7--7--7--7--7---5--5--5--5--5--5--5--5--5--5--5--5--|   X4
A|--5--5--5--5--5--5--5--5--5--5--5--5---5--5--5--5--5--5--5--5--5--5--5--3--|
E|---------------------------------------3--3--3--3--3--3--3--3--3--3--3--5--|

Chorus:

e|-------------------------------------------|
B|-------------------------------------------|
G|-------------------------------------------|
D|--7--7--7----9--9--9----5--5--5--5--5--5---|
A|--7--7--7----9--9--9----5--5--5--5--5--5---|
E|--5--5--5----7--7--7----3--3--3--3--3--3---|

e|-------------------------------------------|
B|-------------------------------------------|
G|---------------------------------7--7--7---|
D|--7--7--7----9--9--9----5--5--5--7--7--7---|
A|--7--7--7----9--9--9----5--5--5--5--5--5---|
E|--5--5--5----7--7--7----3--3--3------------|

e|-------------------------------------------|
B|-------------------------------------------|
G|-------------------------------------------|
D|--7--7--7----9--9--9----5--5--5--5--5--5---|
A|--7--7--7----9--9--9----5--5--5--5--5--5---|
E|--5--5--5----7--7--7----3--3--3--3--3--3---|

e|-------------------------------------------|
B|-------------------------------------------|
G|-------------------------------------------|
D|--7--7--7----9--9--9----5--5--5--5--5--5---|
A|--7--7--7----9--9--9----5--5--5--5--5--5---|
E|--5--5--5----7--7--7----3--3--3--3--3--3---|


Verse:

e|---------------------------------------------------------------------------|
B|---------------------------------------------------------------------------|
G|--7--7--7--7--7--7--7--7--7--7--7--7---------------------------------------|
D|--7--7--7--7--7--7--7--7--7--7--7--7---5--5--5--5--5--5--5--5--5--5--5--5--|   X4
A|--5--5--5--5--5--5--5--5--5--5--5--5---5--5--5--5--5--5--5--5--5--5--5--3--|
E|---------------------------------------3--3--3--3--3--3--3--3--3--3--3--5--|


Chorus:

e|---------------------------------------------------------------------------|
B|---------------------------------------------------------------------------|
G|-------7-----7/6------6/4---2h4-------------------------------9b-9B--------|
D|--7/9-----9---------1-------------2---7/9-9--7---4/2--7-7h9p9---------------|
A|---------------------------------------------------------------------------|
E|---------------------------------------------------------------------------|

e|---------------------------------------------------------------------------|
B|-------------------------10-----------10---------7--7--7--7----------------|
G|---7h9p7---------7-7-7--------7-7-7-7-----7-7----7--7--7--7----------------|
D|----------7h9p9-----------------------------------------------5--6--7------|
A|--------------------------------------------------------------5--6--7------|
E|--------------------------------------------------------------3--4--5------|

e|---------------------------------------------------------------------------|
B|---------------------------------------------------------------------------|
G|-------7-----7/6------6/4---2h4-------------------------------9b-9B--------|
D|--7/9-----9---------1-------------2---7/9-9--7---4/2--7-7h9p9---------------|
A|---------------------------------------------------------------------------|
E|---------------------------------------------------------------------------|

e|---------------------------------------------------------------------------|
B|-------------------------10-----------10---------7--7--7--7----------------|
G|---7h9p7---------7-7-7--------7-7-7-7-----7-7----7--7--7--7----------------|
D|----------7h9p9-----------------------------------------------5--6--7------|
A|--------------------------------------------------------------5--6--7------|
E|--------------------------------------------------------------3--4--5------|


Outro: Strum

e|--2--2--2--2--2--2-----2--2--2--2--2--2------------------------------------|
B|--3--3--3--3--3--3-----1--1--1--1--1--1-----3--3--3-----3--3--3------------|
G|--2--2--2--2--2--2-----2--2--2--2--2--2-----------------2--2--2------------|
D|---------------------------------------------------------------------------|
A|--------------------------------------------2--2--2-----2--2--2------------|
E|--------------------------------------------3--3--3------------------------|

e|---------------------------------------------------------------------------|
B|---------------------------------------------------------------------------|
G|--1--1--1--1--1--1---------------------------------------------------------|
D|--2--2--2--2--2--2---------------------------------------------------------|
A|--2--2--2--2--2--2---------------------------------------------------------|
E|---------------------------------------------------------------------------|

solo was taken from a live version but should fit in nicely with the studio recording



************************************

| x  Dead note
| h  Hammer-on
| p  Pull-off
| b  Bend
| /  Slide up

Other versions of Ruin

RuinChords
Ruin (Ver. 2)Chords
Ruin (Ver. 3)Chords
Ruin (Ver. 2) - introTabs

Almost there ...

Sign in to get your own page with links to favourite songs and more. You are just one click away...

Login with Facebook Login with Google