Log in

One click and you are in

Login with Facebook Login with Google

Why sign up and log in

Guitar Tabs Explorer
Shawn Mendes guitar chords for Queen

Guitar chords with lyrics

  • Capo on 2nd
Tuning: Standard (E A D G B E)

Key: A chord diagramC#C#

Difficulty: Novice

Shawn Mendes
"Queen"

Standard tuning. Capo 2nd fret.
Intro:
   A chord diagramF#F#
e|----------------|----------------|----------------|----------------|
B|----------------|----------------|----------------|----------------|
G|----------------|----------------|----------------|----------------|
D|----4-----4-----|----4-----4-----|----4-----4-----|----4-----4-----|
A|----------------|----------------|----------------|----------------|
E|2-----2-2-------|2-----2-2-------|2-----2-2-------|2-----2-2-------|
  1 + 2 + 3 + 4 + etc.


Verse 1:
   A chord diagramF#F#
e|----------------|----------------|----------------|----------------|
B|----------------|----------------|----------------|----------------|
G|----------------|----------------|----------------|----------------|
D|----4-----4-----|----4-----4-----|----4-----4-----|----4-----4-----|
A|----------------|----------------|----------------|----------------|
E|2-----2-2-------|2-----2-2-------|2-----2-2-------|2-----2-2-------|

  A chord diagramE MajorE                                 A chord diagramBB
e|----------------|----------------|----------------|----------------|
B|----------------|----------------|----------------|----------------|
G|----------------|----------------|----------------|----------------|
D|----2-----2-----|----2-----2-----|----4-----4-----|----4-----4-----|
A|----------------|----------------|2-----2-2-------|2-----2-2-------|
E|0-----0-0-------|0-----0-0-------|----------------|----------------|

A chord diagramF#F#
It's hard to believe

You don't remember me at all
              A chord diagramE MajorE
A chord diagramA minorAm I hard to recognize?
                           A chord diagramBB             A chord diagramF#F#
You say "nice to meet you" every time, yeah

Yeah and I made you laugh

I still remember what I said
                  A chord diagramE MajorE
Guess I shouldn't be surprised
                           A chord diagramBB
You say "nice to meet you" every time


Pre-Chorus:
A chord diagramC#C#
I know we got a lot of mutual friends

Don't say my name, don't come up in your conversations, yeah


Chorus:
A chord diagramF#F#
Who crowned you queen of

You think you're too cool
                      A chord diagramE MajorE
Making beautiful look ugly
                           A chord diagramBB
The way you put yourself above me
A chord diagramF#F#
You treat me

Like I got nothin' on you
                      A chord diagramE MajorE
Making beautiful look ugly
                          A chord diagramBB
You ain't the ruler of no country
                 A chord diagramF#F#
Who made you the queen?


Verse 2:
A chord diagramF#F#
I shouldn't stress about

The fact you're not impressed
                 A chord diagramE MajorE
Are you playing hard to get?
                    A chord diagramBB          A chord diagramF#F#
Or maybe you're not interested

I don't understand

Why everybody thinks you're sweet
                 A chord diagramE MajorE
'Cause I see the opposite
                  A chord diagramBB
No, you're not so innocent


Pre-Chorus:
A chord diagramC#C#
I see the way you're lookin' through me right now

To see if there's somebody cooler around, yeah


Chorus:
A chord diagramF#F#
Who crowned you queen of

You think you're too cool
                      A chord diagramE MajorE
Making beautiful look ugly
                          A chord diagramBB       A chord diagramF#F#
The way you put yourself above me

You treat me

Like I got nothin' on you
                      A chord diagramE MajorE
Making beautiful look ugly
                          A chord diagramBB
You ain't the ruler of no country
                 A chord diagramF#F#
Who made you the queen?


Bridge:

No, no, no, no
                     A chord diagramE MajorE
Who made you the queen?
                     A chord diagramBB
Who made you the queen?


Chorus:
A chord diagramF#F#
Who crowned you queen of

You think you're too cool
                      A chord diagramE MajorE
Making beautiful look ugly
                          A chord diagramBB             A chord diagramF#F#
The way you put yourself above me (nah, yeah)

You treat me

Like I got nothin' on you
                      A chord diagramE MajorE
Making beautiful look ugly (making beautiful look ugly)
                          A chord diagramBB
You ain't the ruler of no country (you ain't the ruler of no country babe)


Outro:
                 A chord diagramF#F#
Who made you the queen?

Who made you the queen?
                       A chord diagramE MajorE
Yeah, you think you're too cool, no
                 A chord diagramBB
Who made you the queen?

Who made you the queen?

Other versions of Queen

Queen (Ver. 2)Chords
Queen (Ver. 3)Chords

Almost there ...

Sign in to get your own page with links to favourite songs and more. You are just one click away...

Login with Facebook Login with Google