Search tabs and chords

Search for song, artist or band

Log in

One click and you are in

Login with Facebook Login with Google

Why sign up and log in

Guitar Tabs Explorer
Shawn Mendes guitar tabs for Perfectly wrong

Guitar tabs with lyrics

Tuning: Standard (E chord diagramEE A chord diagramAA D chord diagramDD G chord diagramGG B chord diagramBB E chord diagramEE)

Difficulty: Intermediate

Chords:

    Bb chord diagramBbBb      C chord diagramCC       Dm chord diagramDmDm      F chord diagramFF
e|--6----|--8----|--5---|--8-----|
B|--6----|--8----|--6---|--10----|
G|--7----|--9----|--7---|--10----|
D|--8----|--10---|--7---|--10----|
A|--8----|--10---|--5---|--8-----|
E|--6----|--8----|--x---|--x-----|

Intro:

e|----------|-----------|----------|-------------|
B|----------|-----------|-----6----|---------10--|
G|------7---|------9----|-------7--|------10-----|
D|--------8-|--------10-|---7------|---10--------|
A|----8-----|---10------|-5--------|-8-----------|
E|--6-------|-8---------|----------|-------------|

e|----------|-----------|----------------------|
B|----------|-----------|-----6----------------|
G|------7---|------9----|-------7--------------|
D|--------8-|--------10-|---7------------------|
A|----8-----|---10------|-5--------------------|
E|--6-------|-8---------|----------------------|

Verse: x4

e|-----------|------------|----------|-------------|
B|-----------|------------|-----6----|---------10--|
G|------7----|-----9------|-------7--|------10-----|
D|--------8--|--------10--|---7------|---10--------|
A|----8------|---10-------|-5--------|-8-----------|
E|--6--------|-8----------|----------|-------------|

e|-----------|-----------|----------------------|
B|-----------|-----------|-----6----------------|
G|------7----|------9----|-------7--------------|
D|--------8--|--------10-|---7------------------|
A|----8------|---10------|-5--------------------|
E|--6--------|-8---------|----------------------|
Taste the poison from your lips
Lately, we're as good as gone
Oh, our love is drunk and it's
Singing me my favorite song

Pre-Chorus: x4

e|--------------|------------|---------|-------------|
B|--------------|------------|-----6---|-----6-------|
G|-------9------|-------9----|---7---7-|---7---7-----|
D|----10---10---|----10---10-|---------|-------------|
A|--------------|------------|-5-------|-5-----------|
E|--8-----------|--8---------|---------|-------------|
Me and you
We were made to break
I know that's true
But it's much too late

Chorus: x2

e|-----------|-----------|----------------------|
B|-----------|-----------|-----6-----------6----|
G|------7----|------9----|-------7-------7------|
D|--------8--|--------10-|---7---------7--------|
A|----8------|---10------|-5---------5----------|
E|--6--------|-8---------|----------------------|

e|----------|-----------|----------|------------|
B|----------|-----------|-----6----|-----6------|
G|------7---|------9----|-------7--|-------7----|
D|--------8-|--------10-|---7------|---7--------|
A|----8-----|---10------|-5--------|-5----------|
E|--6-------|-8---------|----------|------------|
You're perfectly wrong for me
And that's why it's so hard to leave
Yeah, you're perfectly wrong for me
You're perfectly wrong for me
All the stars in the sky could see
Why you're perfectly wrong for me

Verse: x4

e|----------|-----------|----------|------------|
B|----------|-----------|-----6----|-----6------|
G|------7---|------9----|-------7--|-------7----|
D|--------8-|--------10-|---7------|---7--------|
A|----8-----|---10------|-5--------|-5----------|
E|--6-------|-8---------|----------|------------|
Oh, you know how much it hurts
Every time you say you hate me
But when we're making love, you make it worth it
I can't believe the places that you take me

Pre-Chorus: x4

e|--------------|------------|---------|-------------|
B|--------------|------------|-----6---|-----6-------|
G|-------9------|-------9----|---7---7-|---7---7-----|
D|----10---10---|----10---10-|---------|-------------|
A|--------------|------------|-5-------|-5-----------|
E|--8-----------|--8---------|---------|-------------|
There's no use
We were made to break
I know the truth
And it's much too late

Chorus: x4

e|----------|-----------|----------|-------------|
B|----------|-----------|-----6----|------10-----|
G|------7---|------9----|-------7--|---------10--|
D|--------8-|--------10-|---7------|---10--------|
A|----8-----|---10------|-5--------|-8-----------|
E|--6-------|-8---------|----------|-------------|
You're perfectly wrong for me
And that's why it's so hard to leave
Yeah, you're perfectly wrong for me
Oh, you're perfectly wrong for me
All the stars in the sky could see
Why you're perfectly wrong for me

Bridge: x2

e|----------|-----------|----------------------|
B|----------|-----------|-----6-----------6----|
G|------7---|------9----|-------7-------7------|
D|--------8-|--------10-|---7---------7--------|
A|----8-----|---10------|-5---------5----------|
E|--6-------|-8---------|----------------------|

e|----------|-----------|----------|------------|
B|----------|-----------|-----6----|-----6------|
G|------7---|------9----|-------7--|-------7----|
D|--------8-|--------10-|---7------|---7--------|
A|----8-----|---10------|-5--------|-5----------|
E|--6-------|-8---------|----------|------------|
Oh, and why can't I quit
When you break my heart open
I need you more than I know
Oh
And I can't resist
When you're up against my skin
I never want to let you go

Chorus: x4

e|----------|-----------|-----------------------|
B|----------|-----------|-----6-------------10--|
G|------7---|------9----|-------7--------10-----|
D|--------8-|--------10-|---7---------10--------|
A|----8-----|---10------|-5---------8-----------|
E|--6-------|-8---------|-----------------------|

e|----------|-----------|----------|------------|
B|----------|-----------|-----6----|-----6------|
G|------7---|------9----|-------7--|-------7----|
D|--------8-|--------10-|---7------|---7--------|
A|----8-----|---10------|-5--------|-5----------|
E|--6-------|-8---------|----------|------------|

You're perfectly wrong for me
And that's why it's so hard for me
Yeah, you're perfectly wrong for me, mhm
Yeah, you're perfectly wrong for me
Hate that you know that I won't leave
Yeah, you're perfectly wrong for me, oh
Yeah, you're perfectly wrong for me
And that's why it's so hard for me
Yeah, you're perfectly wrong for me, yeah
Oh, you're perfectly wrong for me
Hate that you know that I won't leave
Yeah, you're perfectly wrong for me

Outro:

e|----------|-----------|----------|-------------|
B|----------|-----------|-----6----|---------10--|
G|------7---|------9----|-------7--|------10-----|
D|--------8-|--------10-|---7------|---10--------|
A|----8-----|---10------|-5--------|-8-----------|
E|--6-------|-8---------|----------|-------------|

e|----------|-----------|----------|------------|
B|----------|-----------|-----6----|-----6------|
G|------7---|------9----|-------7--|-------7----|
D|--------8-|--------10-|---7------|---7--------|
A|----8-----|---10------|-5--------|-5----------|
E|--6-------|-8---------|----------|------------|
Yeah, you're perfectly wrong for me

Other versions of Perfectly Wrong

Perfectly wrongChords
Perfectly wrong (Ver. 2)Chords
Perfectly wrong (Ver. 3)Chords

Almost there ...

Sign in to get your own page with links to favourite songs and more. You are just one click away...

Login with Facebook Login with Google