Log in

One click and you are in

Login with Facebook Login with Google

Why sign up and log in

Guitar Tabs Explorer
Shawn Mendes guitar tabs for Never be alone (Ver. 2)

Guitar tabs

  • Capo on 3rd
Tuning: Standard (E A D G B E)

Key: A chord diagramE minorEm

Difficulty: Intermediate

Never Be Alone by Shawn Mendes
Intro:

e|----0---0---2-0-------0---0---2-0------------------------------------------------|
B|0-3---0---------3-0-3---0---------3-0---3-0-0-----0---0-----0---0-----0---0-0-1--|
G|------0-----------------0-------------------0-----0---0-----0---0-----0---0------|
D|--------------------------0h2-------0h2------------------------------------------|
A|--------0h2-------0h2-3---------3-------------0h2-------0h2-------0h2------------|
E|----0---------0---------------------------3---------3---------3---------3---2----|

e|----0---0---2-0-------0---0---2-0------------------------------------------------|
B|------0---------3-0-3---0---------3-0---3-0-0-----0---0-----0---0-----0---0---0--|
G|------0-----------------0-------------------0-----0---0-----0---0-----0---0---0--|
D|--------------------------0h2-------0h2------------------------------------------|
A|--------0h2-------0h2-3---------3-------------0h2-------0h2-------0h2------------|
E|----0---------0---------------------------3---------3---------3---------3---2----|


Verse 1:

e|0-0-0-2-0---------0-0-0---2-0---------------------------------------------------|
B|------------3-0-3---------------3-0-----0---0-----0---0-----0---0-----0---0---0-|
G|--------------0-0---------------------1-----0-----0---0-----0---0-----0---0---0-|
D|----------------------0h2---------0h2-------------------------------------------|
A|----0h2-------0h2-3-----------3---------------0h2-------0h2-------0h2-----------|
E|0---------0-------------------------------3---------3---------3---------3---2---|

e|0-0-0-2-0---------0-0-0---2-0---------------------------------------------------|
B|------------3-0-3---------------3-0-----0---0-----0---0-----0---0-----0---0---0-|
G|--------------0-0---------------------1-----0-----0---0-----0---0-----0---0---0-|
D|----------------------0h2---------0h2-------------------------------------------|
A|----0h2-------0h2-3-----------3---------------0h2-------0h2-------0h2-----------|
E|0---------0-------------------------------3---------3---------3---------3---2---|

Chorus:

e|0-------------------0-0-0---2-0--------------------------------------------|
B|--0-----0---0-----0-------------3-0---3-0-0-----------0-----0-----0---3----|
G|--0-----0---0-----0-----------------------0-----2-2---0-----0---0----------|
D|----0h2-------0h2-------0h2-------0h2--------------------------------------|
A|3---------3---------3---------3-------------0h2---------0h2----------------|
E|----------------------------------------3-----------3---------3-----2------|

e|0-------------------0-0-0---2-0--------------------------------------------|
B|--0-----0---0-----0-------------3-0---3-0-0-----------0-----0--------------|
G|--0-----0---0-----0-----------------------0-----2-2---0-----0--------------|
D|----0h2-------0h2-------0h2-------0h2--------------------------------------|
A|3---------3---------3---------3-------------0h2---------0h2----------------|
E|----------------------------------------3-----------3---------3-----3-2----|


Reff:

e|------------------0-----------0-------------------------------------------------------------------|
B|3---------------------0-----0---3-3-----0-0---0-----0---0-0-----------0-----0-1-0----0-0----------|
G|--0-----0-0-0-0-------0-----0-------0h2-------0-----0-2---------2-2---0-----0-----2------2p0------|
D|------------------------0h2-----------------------------------------------------------------------|
A|----0h2-------0h2---3---------3-----------------0h2---------0h2---------0h2-----------------------|
E|0---------0---------------------------------3---------3-------------3---------3----2---0----------|

e|---------------------------------------------------------------------------|
B|----0---0-------0-----0-1-0------0---0-----0---0-----0---0-----0---0-0-3---|
G|----0---0-------0-----0-----2------0-0-----0---0-----0---0-----0---0-------|
D|------------------0h2--------0h2-------------------------------------------|
A|0h2-------0h2-3---------3--------------0h2-------0h2-------0h2-------------|
E|------0----------------------------3---------3---------3---------3---2-----|


Intro 2nd:

e|----0---0---2-0-------0---0---2-0------------------------------------------------|
B|0-3---0---------3-0-3---0---------3-0---3-0-0-----0---0-----0---0-----0---0-0-1--|
G|------0-----------------0-------------------0-----0---0-----0---0-----0---0------|
D|--------------------------0h2-------0h2------------------------------------------|
A|--------0h2-------0h2-3---------3-------------0h2-------0h2-------0h2------------|
E|----0---------0---------------------------3---------3---------3---------3---2----|


e|----0---0---2-0-------0---0---2-0------------------------------------------------|
B|------0---------3-0-3---0---------3-0---3-0-0-----0---0-----0---0-----0---0---0--|
G|------0-----------------0-------------------0-----0---0-----0---0-----0---0---0--|
D|--------------------------0h2-------0h2------------------------------------------|
A|--------0h2-------0h2-3---------3-------------0h2-------0h2-------0h2------------|
E|----0---------0---------------------------3---------3---------3---------3---2---0|


************************************

| h   Hammer-on
| p   Pull
************************************

Other versions of Never Be Alone

Never be aloneChords
Never be alone hey there delilahChords
Never be alone hey there delilah mashupChords
Never be alone ukuleleChords
Never be alone - introTabs

Almost there ...

Sign in to get your own page with links to favourite songs and more. You are just one click away...

Login with Facebook Login with Google