Log in

One click and you are in

Login with Facebook Login with Google

Why sign up and log in

Guitar Tabs Explorer
Shawn Mendes guitar chords for Nervous

Guitar chords with lyrics

Tuning: Standard (E A D G B E)

Key: A chord diagramC majorC

Difficulty: Novice

Shawn Mendes
"Nervous"

Standard tuning.

Intro:
  A chord diagramG7G7
e|----------------|----------------|
B|----------------|----------------|
G|----x-----------|----x-----------|
D|----x---3-3-3-5-|----x---3-3-3-5-|
A|----x-----------|----x-----------|
E|3-----3---------|3-----3---------|
  1 + 2 + 3 + 4 +  1 + 2 + 3 + 4 + etc.


Verse 1:
  A chord diagramG7G7
e|----------------|----------------|----------------|----------------|
B|----------------|----------------|----------------|----------------|
G|----------------|----------------|----------------|----------------|
D|----x---3-3-3-5-|----x---3-3-3-5-|----x---3-3-3-5-|----x---3-3-3-2-|
A|----x-----------|----x-----------|----x-----------|----x-----------|
E|3---x-3---------|3---x-3---------|3---x-3---------|3---x-3---------|

  A chord diagramFF
e|----------------|----------------|----------------|----------------|
B|----------------|----------------|----------------|----------------|
G|----------------|----------------|----------------|----------------|
D|----x---3-3-3-2-|----x---2-2-2-3-|----x---3-3-3-5-|----x---3-3-3-5-|
A|----x-----------|----x-----------|----x-----------|----x-----------|
E|1---x-1---------|1---x-1---------|3---x-3---------|3---x-3---------|

   A chord diagramG7G7
I saw you on a Sunday in a cafe

And all you did was look my way
                         A chord diagramFF
And my heart started to race
                          A chord diagramG7G7
And my hands started to shake, yeah

I heard you asked about me through a friend

And my adrenaline kicked in
                                   A chord diagramFF
'Cause I've been asking 'bout you too
                                A chord diagramG7G7
And now we're out here in this room


Chorus:
                    A chord diagramG7G7
I get a little bit nervous around you

G7et a little bit stressed out, when I think about you
                A chord diagramFF
G7et a little excited
                           A chord diagramG7G7
Baby, when I think about you, yeah

Talk a little too much around you

(I talk a little too much, yeah)

G7et a little self-conscious when I think about you

(I get a little self-conscious)
                A chord diagramFF
G7et a little excited

(I get a little excited)
                           A chord diagramG7G7
Baby, when I think about you

Yeah, when I think about you, babe


Verse 2:

We walked in the rain, a couple blocks to your apartment

You told me to come inside, caught me staring in your eyes
            A chord diagramFF
And I'm not usually like this
                                A chord diagramG7G7
But I like what you're doing to me, ah, what you're doing to me


Chorus:
                    A chord diagramG7G7
I get a little bit nervous

(I get a little bit nervous) around you

G7et a little bit stressed out

(I get a little bit stressed out) when I think about you
                A chord diagramFF
G7et a little excited

(I get a little excited)
                           A chord diagramG7G7
Baby, when I think about you, yeah

Yeah, when I think about you, babe (oh yeah)

Talk a little too much

(I talk a little too much, yeah) around you

G7et a little self-conscious

(I get a little self-conscious) when I think about you
                A chord diagramFF
G7et a little excited

(I get a little excited)
                           A chord diagramG7G7
Baby, when I think about you

Yeah, when I think about you, babe


Bridge:
     A chord diagramG7G7
You got me acting like I've never done this before

I promise I'll be ready when I walk through the door
       A chord diagramFF
And I don't know why
       A chord diagramG7G7
No, I don't know why

Yeah


Chorus:
                    A chord diagramG7G7
I get a little bit nervous

(I get a little bit nervous) around you

G7et a little bit stressed out

(I get a little bit stressed out) when I think about you
                A chord diagramFF
G7et a little excited

(I get a little excited)
                           A chord diagramG7G7
Baby, when I think about you, yeah

Yeah, when I think about you, babe (oh yeah)

Talk a little too much

(I talk a little too much, yeah) around you

G7et a little self-conscious

(I get a little self-conscious) when I think about you
                A chord diagramFF
G7et a little excited

(I get a little excited)
                           A chord diagramG7G7
Baby, when I think about you

Yeah, when I think about you, babe

Other versions of Nervous

Nervous (Ver. 2)Chords

Almost there ...

Sign in to get your own page with links to favourite songs and more. You are just one click away...

Login with Facebook Login with Google