Search tabs and chords

Search for song, artist or band

Log in

One click and you are in

Login with Facebook Login with Google

Why sign up and log in

Guitar Tabs Explorer
Shawn Mendes guitar tabs for Lost in japan

Guitar tabs

  • Capo on 3rd
Tuning: Standard (E chord diagramEE A chord diagramAA D chord diagramDD G chord diagramGG B chord diagramBB E chord diagramEE)

Key: C chord diagramCC

Difficulty: Advanced

Intro:
e|---------------2-------------7-----10--h12-s17-----------------------------|
B|-------------0--------------5------------------------7---------------------|
G|-----------4---------------5------------------------7----------------------|
D|---------4----------------5------------------------5-----------------------|
A|-------0-----------------5------------------------7------------------------|
E|-----3------------------5------------------------0-------------------------|

e|---------7---h8-p7------5p3-----2 ^----------7---h10p7-----------5---------|
B|--------5-----------------------0-|---------5-----------------7----7-------|
G|-------5------------------------0-|--------5-----------------7-------------|
D|------3-------------------------0-|-------5-----------------5--------------|
A|-----3--------------------------0-|------5-----------------7---------------|
E|--------------------------------3-|-----5-----------------0----------------|

Verse:                 All it'd take is one flight, We'd
e|------------3-----|--------------------------------------------------------|
B|--------5---------|--------------------------------------------------------|
G|-------4----------|-------------------4------------------------------------|
D|------5-----------|-------------------4-----4p2------4p2-------------------|
A|-----3------------|--------------------------------------------------------|
E|------------------|-----0h12---S3---3---3----------3--------3--3s5---------|
                            o       o           x o     o      o      o

        be in the same time zone.
e|---------------------------------------------------------------------------|
B|---------------------------------------------------------------------------|
G|--------2------2-----------------------------4-----------------------------|
D|--------4------4p2---4p2---------------------4-----4p2--4p2----------------|
A|-----------------------------------------------------------------3---------|
E|-----5-------5-------5----------5s7--0-------0---0-----0-----0-------------|
       o    x  o      0            o    o        x     o       o   o

e|-----------------------------------------------------------------------------|
B|-----------------------------------------------------------------------------|
G|-------4----------------------------------0-----4----------------------------|
D|-------4----4p2---4p2-------2-------------0-----4p2p0-----3--2---------------|
A|----------3--------------------7--7s9------------------2---------------------|
E|------------------------------------------3-----3----------------------------|
           x   o    o                       o     o    o    o    o

e|---------------------------------------------------------------------------|
B|---------------------------------------------------------------------------|
G|-----------------2---------------------------4-----------------------------|
D|-----------------4---4p2-----4p2-------------4---4p2----4p2----------------|
A|---------------------------------------------------------------------------|
E|-------3--3s5----5--5-------------5s7---0----0-0-------0-----0-------------|
         o  o       x   o     o     o     o      x   o     o

e|---------------------------------------------------------------------------|
B|---------------------------------------------------------------------------|
G|---------------------------------------------------------------------------|
D|------s9-----0----0--------------------------------------------------------|
A|------s7-----5----3--------------------------------------------------------|
E|------s8-----7----5--------------------------------------------------------|

Chorus:
e|------------------------------------------------------------------------------|
B|------------------------------------------------------------------------------|
G|--------0-----2----2/4----4----4------------------------------0---------------|
D|----------------------------------------------5-------------------0-----------|
A|-----3------------------------------------------------------------------------|
E|-------------------3-----3----------------3---------3-------------------------|
             x                       x                    x

e|---------------------------------------------------------------------------|
B|-----------0---0--0------3--------1p0--------------------------------------|
G|-----0-----0----------------------0------2------0-----2/4-------4---4------|
D|-----------2----------------------2----------------------------------------|
A|-----------0-----------------0---------------------------------------------|
E|-------------------------------------------------------------0-------------|
                        x                      x      x

e|---------------------------------------------------------------------------|
B|---------------------0------------0---0---0-----3-------1p0----------------|
G|---------------------0---0--------0---------------------0-------2-----0----|
D|---------2------------------------2---------------------2------------------|
A|----------------------------------3----------------3----0------------------|
E|-----0--------0------------------------------------------------------------|
                       x                       x                     x

e|---------------------------------------------------------------------------|
B|---------------------------------------------------------------------------|
G|----2/4----------4----4----------------------------------------------------|
D|--------------------------------------5----------5-------------------------|
A|---------------------------------------------------------------------------|
E|------------3-------------------3----------3-------------------------------|
                            x                      x

e|---------------------------------------------------------------------------|
B|----------------------------------------------------------0----------------|
G|----------------------------------------------------------0----------------|
D|-----/4p0----4p0-----4-----0----------0------------------------------------|
A|------0--------------0---------2--------------2-------2--------------------|
E|--------------------------------------------------0------------------------|
               x                    x       x               x

e|---------------------------------------- ----------------------------------|
B|----------0---0--0-------------0---------0-----------0-----0----0----------|
G|-------------------------2-----------2---0---------------------------------|
D|-------------------------------------0-------------------------------------|
A|-------------------------------------------------3--------------2----------|
E|----------0----------------------------------------------------------------|
       x              x          x

e|--------------------------------------------------------------------------------|
B|--------------------------------------------------------------------------------|
G|----2----2/---------------------------------------------------------------------|
D|--------------------------------------------------------------------------------|
A|---------0----------------------------------------------------------------------|
E|------------------12\-----------------------------------------------------------|


************************************

| h  Hammer-on
| p  Pull-off
| /  Slide up
| \  Slide down

************************************

Other versions of Lost In Japan

Lost in JapanChords
Lost in Japan (Ver. 2)Chords
Lost in Japan (Ver. 3)Chords

Almost there ...

Sign in to get your own page with links to favourite songs and more. You are just one click away...

Login with Facebook Login with Google