Search tabs and chords

Search for song, artist or band

Log in

One click and you are in

Login with Facebook Login with Google

Why sign up and log in

Guitar Tabs Explorer
Shawn Mendes bass tabs for Lost in japan

Bass tabs

Tuning: Standard (E A D G)

Key: Bb

Difficulty: Intermediate

Tuning: Standard

Key: Bb Major

Tempo: 105 BPM

Note: "-" = 1/32 note

Verse 1: (0:22-0:40)

G|--------------------------------|--------------------------------|
D|------------8-8-----------------|------------1010--------10h12---|
A|--------------------------------|--------------------------------|
E|6-----------------------6/------|8-------------------------------|
  1   &   2   &   3   &   4   &    1   &   2   &   3   &   4   &

G|--------------------------------|------------8-8---------8h10----|
D|------------5-5-----------------|--------------------------------|
A|--------------------------------|6-------------------------------|
E|3-----------------------3/------|--------------------------------|
  1   &   2   &   3   &   4   &    1   &   2   &   3   &   4   &

G|--------------------------------|--------------------------------|
D|------------8-8-----------------|------------1010--------10h12---|
A|--------------------------------|--------------------------------|
E|6-----------------------6/------|8-------------------------------|
  1   &   2   &   3   &   4   &    1   &   2   &   3   &   4   &

G|--------------------------------|--------------------------------|
D|------------5-5-----------------|--------------------------------|
A|--------------------------------|6-------5-------3---------------|
E|3-----------------------3/--6---|--------------------------------|
  1   &   2   &   3   &   4   &    1   &   2   &   3   &   4   &

Chorus 1: (0:40-0:58)

G|--------------------------------|--------------------------------|
D|------------x-8-----------------|------------x-10----------------|
A|--------------------------------|--------------------------------|
E|6-----------------------6/------|8-----------------------8\------|
  1   &   2   &   3   &   4   &    1   &   2   &   3   &   4   &

G|--------------------------------|------------x-8-----------------|
D|------------x-5-----------------|--------------------------------|
A|--------------------------------|6-----------------------6h8-----|
E|3-----------------------3/------|--------------------------------|
  1   &   2   &   3   &   4   &    1   &   2   &   3   &   4   &

G|--------------------------------|--------------------------------|
D|------------x-8-----------------|------------x-10--------10h12---|
A|--------------------------------|--------------------------------|
E|6-----------------------6---7---|8-------------------------------|
  1   &   2   &   3   &   4   &    1   &   2   &   3   &   4   &

G|--------------------------------|--------------------------------|
D|------------x-5-----------------|--------------------------------|
A|--------------------------------|6-------5-------3---------------|
E|3-----------------------3/--6---|--------------------------------|
  1   &   2   &   3   &   4   &    1   &   2   &   3   &   4   &


Verse 2: (0:58-1:16)

G|--------------------------------|--------------------------------|
D|------8-------------------------|------------x-10----------------|
A|--------------------------------|--------------------------------|
E|6-----------------------6---7---|8-----------------------8\------|
  1   &   2   &   3   &   4   &    1   &   2   &   3   &   4   &

G|--------------------------------|------------x-8-----------------|
D|------------x-5-----------------|--------------------------------|
A|--------------------------------|6-----------------------6h8-----|
E|3-----------------------3/--6---|--------------------------------|
  1   &   2   &   3   &   4   &    1   &   2   &   3   &   4   &

G|--------------------------------|--------------------------------|
D|------------x-8-----------------|------------x-10--------10h12---|
A|--------------------------------|--------------------------------|
E|6-----------------------6---7---|8-------------------------------|
  1   &   2   &   3   &   4   &    1   &   2   &   3   &   4   &

G|--------------------------------|------------------------8h10----|
D|------------x-5-----------------|--------------------------------|
A|--------------------------------|6-------5-------3---------------|
E|3-----------------------3/--6---|--------------------------------|
  1   &   2   &   3   &   4   &    1   &   2   &   3   &   4   &


Chorus 2: (1:16-2:20)

G|--------------------------------|--------------------------------| (1:16)
D|------------x-8-----------------|------------x-10--------10h12---|
A|--------------------------------|--------------------------------|
E|6-----------------------6---7---|8-------------------------------|
  1   &   2   &   3   &   4   &    1   &   2   &   3   &   4   &

G|--------------------------------|------------x-8---------8h10----|
D|------------x-5-----------------|--------------------------------|
A|--------------------------------|6-------------------------------|
E|3-----------------------3/--6---|--------------------------------|
  1   &   2   &   3   &   4   &    1   &   2   &   3   &   4   &

G|--------------------------------|--------------------------------|
D|------------x-8-----------------|------------x-10--------10h12---|
A|--------------------------------|--------------------------------|
E|6-----------------------6---7---|8-------------------------------|
  1   &   2   &   3   &   4   &    1   &   2   &   3   &   4   &

G|--------------------------------|--------------------------------|
D|------------x-5-----------------|--------------------------------|
A|--------------------------------|6-------5-------3---------------|
E|3-----------------------3/--6---|--------------------------------|
  1   &   2   &   3   &   4   &    1   &   2   &   3   &   4   &

G|--------------------------------|--------------------------------| (1:35)
D|------------x-8-----------------|------------x-10--------10h12---|
A|--------------------------------|--------------------------------|
E|6-----------------------6---7---|8-------------------------------|
  1   &   2   &   3   &   4   &    1   &   2   &   3   &   4   &

G|--------------------------------|------------10h12---------------|
D|------------x-5-----------------|--------------------------------|
A|--------------------------------|6-----------------------6h8-----|
E|3-----------------------3/--6---|--------------------------------|
  1   &   2   &   3   &   4   &    1   &   2   &   3   &   4   &

G|--------------------------------|--------------------------------|
D|------------x-8-----------------|------------x-10--------10h12---|
A|--------------------------------|--------------------------------|
E|6-----------------------6---7---|8-------------------------------|
  1   &   2   &   3   &   4   &    1   &   2   &   3   &   4   &

G|--------------------------------|--------------------------------|
D|------------x-5-----------------|--------------------------------|
A|--------------------------------|6-------5-------3---------------|
E|3-----------------------3/--6---|--------------------------------|
  1   &   2   &   3   &   4   &    1   &   2   &   3   &   4   &

G|--------------------------------|--------------------------------|(1:53)
D|------------x-8-----------------|------------x-10----------------|
A|--------------------------------|--------------------------------|
E|6-----------------------6---7---|8-----------------------8\------|
  1   &   2   &   3   &   4   &    1   &   2   &   3   &   4   &

G|--------------------------------|------------10h12-------10h12p10|
D|------------x-5-----------------|--------------------------------|
A|--------------------------------|6-------------------------------|
E|3-----------------------3/--6---|--------------------------------|
  1   &   2   &   3   &   4   &    1   &   2   &   3   &   4   &

G|--------------------------------|--------------------------------|
D|------------x-8-----------------|------------x-10----------------|
A|--------------------------------|--------------------------------|
E|6-----------------------6---7---|8-----------------------8\------|
  1   &   2   &   3   &   4   &    1   &   2   &   3   &   4   &

G|--------------------------------|--------------------------------|
D|------------x-5-----------------|--------------------------------|
A|--------------------------------|6-------5-------3---------------|
E|3-----------------------3/--6---|------------------------3-------|
  1   &   2   &   3   &   4   &    1   &   2   &   3   &   4   &

G|--------------------------------|--------------------------------| (2:11)
D|------------x-8-----------------|------------x-10----------------|
A|--------------------------------|--------------------------------|
E|6-----------------------6---7---|8-----------------------8\------|
  1   &   2   &   3   &   4   &    1   &   2   &   3   &   4   &

G|--------------------------------|--------------------------------|
D|------------x-5-----------------|--------------------------------|
A|--------------------------------|6-------5-------3---------------|
E|3-----------------------3/--6---|------------------------3-------|
  1   &   2   &   3   &   4   &    1   &   2   &   3   &   4   &


Bridge: (2:20-2:38)

G|--------------------------------|--------------------------------|
D|--------------------------------|--------------------------------|
A|1---------------------------1---|3-------------------------------|
E|------------------------3-------|--------------------------------|
  1   &   2   &   3   &   4   &    1   &   2   &   3   &   4   &

G|--------------------------------|12--------------------------15\-|
D|--------------------------------|--------------------------------|
A|--------------------------------|--------------------------------|
E|3-------------------------------|11------------------------------|
  1   &   2   &   3   &   4   &    1   &   2   &   3   &   4   &

G|7-------------------------------|8-------------------------------|
D|--------------------------------|--------------------------------|
A|--------------------------------|--------------------------------|
E|6-------------------------------|8-------------------------------|
  1   &   2   &   3   &   4   &    1   &   2   &   3   &   4   &

G|15------------------------------|12------10------8---------------|
D|--------------------------------|--------------------------------|
A|--------------------------------|--------------------------------|
E|15------------------------------|11------10------8---------------|
  1   &   2   &   3   &   4   &    1   &   2   &   3   &   4   &


Chorus 3: (2:38-3:15)

G|--------------------------------|--------------------------------| (2:38)
D|------------x-8-----------------|------------x-10----------------|
A|--------------------------------|--------------------------------|
E|6-----------------------6---7---|8-----------------------8\------|
  1   &   2   &   3   &   4   &    1   &   2   &   3   &   4   &

G|--------------------------------|------------x-8-----------------|
D|------------x-5-----------------|--------------------------------|
A|--------------------------------|6-----------------------6h8-----|
E|3-----------------------3/--6---|--------------------------------|
  1   &   2   &   3   &   4   &    1   &   2   &   3   &   4   &

G|--------------------------------|--------------------------------|
D|------------x-8-----------------|------------x-10--------10h12---|
A|--------------------------------|--------------------------------|
E|6-----------------------6---7---|8-------------------------------|
  1   &   2   &   3   &   4   &    1   &   2   &   3   &   4   &

G|--------------------------------|--------------------15----------|
D|------------x-5-----------------|------------15h17-------17\-----|
A|--------------------------------|6-------------------------------|
E|3-----------------------3/--6---|--------------------------------|
  1   &   2   &   3   &   4   &    1   &   2   &   3   &   4   &

G|--------------------------------|--------------------------------| (2:57)
D|------------x-8-----------------|------------x-10----------------|
A|--------------------------------|--------------------------------|
E|6-----------------------6---7---|8-----------------------8\------|
  1   &   2   &   3   &   4   &    1   &   2   &   3   &   4   &

G|--------------------------------|------------x-8-----------------|
D|------------x-5-----------------|--------------------------------|
A|--------------------------------|6-----------------------6h8-----|
E|3-----------------------3/--6---|--------------------------------|
  1   &   2   &   3   &   4   &    1   &   2   &   3   &   4   &

G|--------------------------------|--------------------------------|
D|------------x-8-----------------|------------x-10----------------|
A|--------------------------------|--------------------------------|
E|6-----------------------6---7---|8-----------------------8\------|
  1   &   2   &   3   &   4   &    1   &   2   &   3   &   4   &

G|--------------------------------|--------------------------------|
D|------------x-5-----------------|--------------------------------|
A|--------------------------------|6-------5-------3---------------|
E|3-----------------------3/--6---|--------------------------------|
  1   &   2   &   3   &   4   &    1   &   2   &   3   &   4   &


************************************

| /   Slide up
| \   Slide down
| h   Hammer-on
| p   Pull-off
| x   Muted note

************************************

Other versions of Lost In Japan

Lost in Japan (Ver. 2)Bass tabs

Almost there ...

Sign in to get your own page with links to favourite songs and more. You are just one click away...

Login with Facebook Login with Google