Search tabs and chords

Search for song, artist or band

Log in

One click and you are in

Login with Facebook Login with Google

Why sign up and log in

Guitar Tabs Explorer
Shawn Mendes bass tabs for Lost in japan (Ver. 2)

Bass tabs

Tuning: Standard (E A D G)

Difficulty: Intermediate

Note: This tab is written in phrases not measures, I have divided the tab up
into the different phrases of the song as this is the way I learn it.

Intro:
Rest, in at 0:22
Verse 1:
G|---X-3-3-----X-5-5-X-5h7---------------X-8-8--X-8h10-------|---X-3-3----5-5-X-5h7--------------------------|
D|---------------------------X-5-5---------------------------|------------------------X-5-5------------------|
A|-1-------1-3-----------------------/6----------------------|-1-------3------------------------6-5-3--------|
E|-------------------------3-------3-------------------------|----------------------3-------3-4--------------|
B|-----------------------------------------------------------|-----------------------------------------------|


Chorus: ("Do you got plans...")
G|---X-3-3-------X-5-5---------------X-8-8-----|---X-3-3-------X-5-5-X-5h7---------------------------|
D|-------------------------X-5-5---------------|------------------------------X-5-5------------------|
A|-1-------1-2-3-------3----------/6-------6h8-|-1-------1-2-3--------------------------6-5-3--------|
E|-----------------------3---------------------|----------------------------3-------3-4--------------|
B|---------------------------------------------|-----------------------------------------------------|


Verse 2: ("I can feel the tension...|)
G|---3-------X-5-5-------------------X-8-8-----|---X-3-3-------X-5-5-------------------------8-X-8h10-|
D|-----------------------X-5-5-----------------|-----------------------------X-5-5--------------------|
A|-1---1-2-3-------3-5-------------6-------6h8-|-1-------1-2-3-------X-3h5---------------6-5----------|
E|---------------------3-------3-4-------------|---------------------------3-------3-4----------------|
B|---------------------------------------------|------------------------------------------------------|


Chorus: ("Do you got plans...")
G|---6h7--------7h8-------2h3-------10h12-8h10-|---6h7--------7h8-------2h3---------|
D|---------------------------------------------|------------------------------------|
A|-1-----1-2-3------3h5---------6--------------|-1-----1-2-3------3h5---------6-5-3-| x2
E|----------------------3-----3----------------|----------------------3-----3-------|
B|---------------------------------------------|------------------------------------|

G|---6h7--------7h8-------2h3-------10h12-8h10-|---6h7--------7h8-------2h3-----------|
D|---------------------------------------------|--------------------------------------|
A|-1-----1-2-3------3h5---------6--------------|-1-----1-2-3------3h5---------6-5-3---|
E|----------------------3-----3----------------|----------------------3-----3-------1-|
B|---------------------------------------------|--------------------------------------|

G|---6h7--------7h8-------2h3-----------|
D|--------------------------------------|
A|-1-----1-2-3------3h5---------6-5-3---|
E|----------------------3-----3-------1-|
B|--------------------------------------|

Slow Chorus ("Do you got plans...")
G|-----------------12---15/-7---8---15--12-10-8-|---6h7-------7h8-------2h3-------10h12-----|
D|----------------------------------------------|-------------------------------------------|
A|-1-------3------------------------------------|-1-----1-2-3-----3h5-----------6-------6h8-|
E|-----1-3-----3---11-------7---8---15--11-10-8-|---------------------3-----3-4-------------|
B|----------------------------------------------|-------------------------------------------|

G|---6h7-------7h8-------2h3-------10h12h15-12-10h12-|
D|---------------------------------------------------|
A|-1-----1-2-3-----3h5-----------6-------------------|
E|---------------------3-----3-4---------------------|
B|---------------------------------------------------|

G|---6h7-------7h8-------2h3-------10h12-----|---6h7-------7h8-------2h3-----------|
D|-------------------------------------------|-------------------------------------|
A|-1-----1-2-3-----3h5-----------6-------6h8-|-1-----1-2-3-----3h5-----------6-5-3-|
E|---------------------3-----3-4-------------|---------------------3-----3-4-------|
B|-------------------------------------------|-------------------------------------|



************************************

| h  Hammer-on
| /  Slide up
| X
pluck muted string

************************************

Other versions of Lost In Japan

Lost in JapanBass tabs

Almost there ...

Sign in to get your own page with links to favourite songs and more. You are just one click away...

Login with Facebook Login with Google