Search tabs and chords

Search for song, artist or band

Log in

One click and you are in

Login with Facebook Login with Google

Why sign up and log in

Guitar Tabs Explorer
Shawn Mendes guitar tabs for Lights on

Guitar tabs

Intro:

e|---------------------------------------------------------------------------|
B|---------------------------------------------------------------------------|
G|-------14------14---11---9\7----------------6-----6h7p6--------------------|
D|-----14----------------------------------7----------------6/7--------------|
A|--12--------12------------------------0--------0---------------------------|
E|---------------------------------------------------------------------------|
e|---------------------------------------------------------------------------|
B|---------------------------------------------------------------------------|
G|-------14------14---11---9\7----------------6-----6h7p6--------------------|
D|-----14----------------------------------7----------------6/7--------------|
A|--12--------12------------------------0--------0---------------------------|
E|---------------------------------------------------------------------------|

Verse:



e|---------------------------------------------------------------------------|
B|---------------------------------------------------------------------------|
G|-------14------14---11---9\7----------------6-----6h7p6--------------------|
D|-----14----------------------------------7----------------6/7--------------|
A|--12--------12------------------------0--------0---------------------------|
E|---------------------------------------------------------------------------|

e|---------------------------------------------------------------------------|
B|---------------------------------------------------------------------------|
G|-------14------14---11---9\7----------------6-----6h7p6--------------------|
D|-----14----------------------------------7----------------6/7--------------|
A|--12--------12------------------------0--------0---------------------------|
E|---------------------------------------------------------------------------|

e|---------------------------------------------------------------------------|
B|-----3---3-0---------------------------------------------------------------|
G|----2---------2-----------1----1h2p1---------------------------------------|
D|---4--------------------2--------------------------------------------------|
A|--2----2------2------------------------------------------------------------|
E|----------------------0------0---------------------------------------------|

e|---------------------------------------------------------------------------|
B|---------------------------------------------------------------------------|
G|---------14---14---11---9\7----------------14--11--14----------------------|
D|------14-----------------------------------14------------------------------|
A|--12------------------------------------12---------------------------------|
E|---------------------------------------------------------------------------|

e|---------------------------------------------------------------------------|
B|---------------------------------------------------------------------------|
G|-------14------14---11---9\7----------------6-----6h7p6--------------------|
D|-----14----------------------------------7----------------6/7--------------|
A|--12--------12------------------------0--------0---------------------------|
E|---------------------------------------------------------------------------|

e|---------------------------------------------------------------------------|
B|---------------------------------------------------------------------------|
G|-------14------14---11---9\7----------------6-----6h7p6--------------------|
D|-----14----------------------------------7----------------6/7--------------|
A|--12--------12------------------------0--------0---------------------------|
E|---------------------------------------------------------------------------|

e|---------------------------------------------------------------------------|
B|-----3---3-0---------------------------------------------------------------|
G|----2---------2-----------1----1h2p1---------------------------------------|
D|---4--------------------2--------------------------------------------------|
A|--2----2------2------------------------------------------------------------|
E|----------------------0------0---------------------------------------------|


e|---------------------------------------------------------------------------|
B|---------------------------------------------------------------------------|
G|---------14---14---11---9\7----------------14--11--14----------------------|
D|------14-----------------------------------14------------------------------|
A|--12------------------------------------12---------------------------------|
E|---------------------------------------------------------------------------|



Chorus:

D chord diagramDD A chord diagramAA F#m chord diagramF#mF#m E chord diagramEE (x4)

Verse 2:

e|---------------------------------------------------------------------------|
B|---------------------------------------------------------------------------|
G|-------14------14---11---9\7----------------6-----6h7p6--------------------|
D|-----14----------------------------------7----------------6/7--------------|
A|--12--------12------------------------0--------0---------------------------|
E|---------------------------------------------------------------------------|

e|---------------------------------------------------------------------------|
B|---------------------------------------------------------------------------|
G|-------14------14---11---9\7----------------6-----6h7p6--------------------|
D|-----14----------------------------------7----------------6/7--------------|
A|--12--------12------------------------0--------0---------------------------|
E|---------------------------------------------------------------------------|

e|---------------------------------------------------------------------------|
B|-----3---3-0---------------------------------------------------------------|
G|----2---------2-----------1----1h2p1---------------------------------------|
D|---4--------------------2--------------------------------------------------|
A|--2----2------2------------------------------------------------------------|
E|----------------------0------0---------------------------------------------|


e|---------------------------------------------------------------------------|
B|---------------------------------------------------------------------------|
G|---------14---14---11---9\7----------------14--11--14----------------------|
D|------14-----------------------------------14------------------------------|
A|--12------------------------------------12---------------------------------|
E|---------------------------------------------------------------------------|

e|---------------------------------------------------------------------------|
B|---------------------------------------------------------------------------|
G|-------14------14---11---9\7----------------6-----6h7p6--------------------|
D|-----14----------------------------------7----------------6/7--------------|
A|--12--------12------------------------0--------0---------------------------|
E|---------------------------------------------------------------------------|

e|---------------------------------------------------------------------------|
B|---------------------------------------------------------------------------|
G|-------14------14---11---9\7----------------6-----6h7p6--------------------|
D|-----14----------------------------------7----------------6/7--------------|
A|--12--------12------------------------0--------0---------------------------|
E|---------------------------------------------------------------------------|

e|---------------------------------------------------------------------------|
B|-----3---3-0---------------------------------------------------------------|
G|----2---------2-----------1----1h2p1---------------------------------------|
D|---4--------------------2--------------------------------------------------|
A|--2----2------2------------------------------------------------------------|
E|----------------------0------0---------------------------------------------|


e|---------------------------------------------------------------------------|
B|---------------------------------------------------------------------------|
G|---------14---14---11---9\7----------------14--11--14----------------------|
D|------14-----------------------------------14------------------------------|
A|--12------------------------------------12---------------------------------|
E|---------------------------------------------------------------------------|

Bridge:

D chord diagramDD A chord diagramAA F#m chord diagramF#mF#m E chord diagramEE (x4)


Chorus:

D chord diagramDD A chord diagramAA F#m chord diagramF#mF#m E chord diagramEE (x4)


[Outro}

D chord diagramDD A chord diagramAA D chord diagramDD A chord diagramAA

************************************

| x   Dead note
| g   Grace note
| (n) Ghost note
| h   Hammer-on
| p   Pull-off
| r   Release
| >   Accented note
| t   Tapping
| b   Bend
| br  Bend release
| pb  Pre-bend
| pbr Pre-bend release
| /   Slide up
| \   Slide down
| ~   Vibrato
| s   Slap
| P   Pop
| PM  Palm mute
| TR  Trill
| N   Tremolo

Other versions of Lights On

Lights onChords
Lights on (Ver. 2)Tabs
Lights on - IntroTabs

Almost there ...

Sign in to get your own page with links to favourite songs and more. You are just one click away...

Login with Facebook Login with Google