Log in

One click and you are in

Login with Facebook Login with Google

Why sign up and log in

Guitar Tabs Explorer
Shawn Mendes guitar tabs for Lights on

Intro

Tuning: Standard (E A D G B E)

Difficulty: Intermediate


Intro:

e|---------------------------------------|
B|---------------------------------------|
G|---14----14-11-------------------------|
D|--------------14/12--11---11/12-11-----|
A|-12--x----------12-----x-x----------11-|
E|----------------------------------12---|

e|---------------------------------------|
B|---------------------------------------|
G|---14----14-11-------------------------|
D|--------------14/12--11---11/12-11-----|
A|-12--x----------12-----x-x----------11-|
E|----------------------------------12---|


************************************
| x   Dead note
| /   Slide

************************************

Other versions of Lights On

Lights onChords
Lights onTabs
Lights on (Ver. 2)Tabs

↓ Add and view comments below ↓

What do you think about this song and these tabs?

Add your comments, questions, rant or a thumbs up below.

Almost there ...

Sign in to get your own page with links to favourite songs and more. You are just one click away...

Login with Facebook Login with Google