Search tabs and chords

Search for song, artist or band

Log in

One click and you are in

Login with Facebook Login with Google

Why sign up and log in

Guitar Tabs Explorer
Shawn Mendes guitar tabs for Life of the party acoustic

Guitar tabs with lyrics

-------------------------------------------------------------------------------
                             LIFE OF THE PARTY - Shawn Mendes
-------------------------------------------------------------------------------
Tabbed by: MaddiB99

Tuning:Standard

Please Rate!!

Capo 1st fret

e|-3---3---3---3--3-3-3-3----0-----------------------------------------------|
B|-3---3---3---3--3-3-3-3----1-----------------------------------------------|
G|-----0-h-2-p-0--0-0-0-0----0-----------------------------------------------|
D|-2---0---0---0--0-0-0-0----2-----------------------------------------------|
A|-2---3---3---3--0-0-0-0----0-----------------------------------------------|
E|----------------3-3-3-3----------------------------------------------------|

   Palm Muted
e|-3-3-3-3-3-3--3-3-3-3-3-0--3-3-3-3-3-3---3---3--3-3-3-3-3-3----------------|
B|-3-3-3-3-3-3--3-3-3-3-3-1--3-3-3-3-3-3---3---3--3-3-3-3-3-3----------------|
G|-0-0-0-0-0-0--0-0-0-0-0-0--0-0-0-0-0-0-h-2-p-0--0-0-0-0-0-0----------------|
D|-2-2-2-2-2-2--0-0-0-0-0-2--2-2-2-2-2-0---0---0--0-0-0-0-0-0----------------|
A|-2-2-2-2-2-2--0-0-0-0-0-0--2-2-2-2-2-3---3---3--0-0-0-0-0-0----------------|
E|--------------3-3-3-3-3-------------------------3-3-3-3-3-3----------------|

   Palm Muted
e|-3-3-3-3-3-3--3-3-3-3-3-0--3-3-3-3-3-3---3---3--3-3-3-3-3-3----------------|
B|-3-3-3-3-3-3--3-3-3-3-3-1--3-3-3-3-3-3---3---3--3-3-3-3-3-3----------------|
G|-0-0-0-0-0-0--0-0-0-0-0-0--0-0-0-0-0-0-h-2-p-0--0-0-0-0-0-0----------------|
D|-2-2-2-2-2-2--0-0-0-0-0-2--2-2-2-2-2-0---0---0--0-0-0-0-0-0----------------|
A|-2-2-2-2-2-2--0-0-0-0-0-0--2-2-2-2-2-3---3---3--0-0-0-0-0-0----------------|
E|--------------3-3-3-3-3-------------------------3-3-3-3-3-3----------------|

   Palm Muted
e|-3-3-3-3-3-3--3-3-3-3-3-0--3-3-3-3-3-3---3---3--3-3-3-3-3-3----------------|
B|-3-3-3-3-3-3--3-3-3-3-3-1--3-3-3-3-3-3---3---3--3-3-3-3-3-3----------------|
G|-0-0-0-0-0-0--0-0-0-0-0-0--0-0-0-0-0-0-h-2-p-0--0-0-0-0-0-0----------------|
D|-2-2-2-2-2-2--0-0-0-0-0-2--2-2-2-2-2-0---0---0--0-0-0-0-0-0----------------|
A|-2-2-2-2-2-2--0-0-0-0-0-0--2-2-2-2-2-3---3---3--0-0-0-0-0-0----------------|
E|--------------3-3-3-3-3-------------------------3-3-3-3-3-3----------------|

   Palm Muted
e|-3-3-3-3-3-3--3-3-3-3-3-0--3-3-3-3-3-3---3---3--3-3-3-3-3-3----------------|
B|-3-3-3-3-3-3--3-3-3-3-3-1--3-3-3-3-3-3---3---3--3-3-3-3-3-3----------------|
G|-0-0-0-0-0-0--0-0-0-0-0-0--0-0-0-0-0-0-h-2-p-0--0-0-0-0-0-0----------------|
D|-2-2-2-2-2-2--0-0-0-0-0-2--2-2-2-2-2-0---0---0--0-0-0-0-0-0----------------|
A|-2-2-2-2-2-2--0-0-0-0-0-0--2-2-2-2-2-3---3---3--0-0-0-0-0-0----------------|
E|--------------3-3-3-3-3-------------------------3-3-3-3-3-3----------------|

   Palm Muted
e|-3-3-3-3-3-3--3-3-3-3-3----3--------------------3--------------------------|
B|-3-3-3-3-3-3--3-3-3-3-3----3--------------------3--------------------------|
G|-0-0-0-0-0-0--0-0-0-0-0----0--------------------0--------------------------|
D|-2-2-2-2-2-2--0-0-0-0-0----2--------------------0--------------------------|
A|-2-2-2-2-2-2--0-0-0-0-0----2--------------------0--------------------------|
E|--------------3-3-3-3-3-------------------------3--------------------------|

  We don't have to be ordinary. Make your best mistakes.
e|-3------------------------3---3----------------------3---------------------|
B|-3------------------------3---3----------------------3---------------------|
G|-0------------------------0---0----------------------0---------------------|
D|-0------------------------0---2----------------------0---------------------|
A|-2------------------------3---2----------------------3---------------------|
E|-3-------------------------------------------------------------------------|

  Cause we don't have the time to be sorry. Baby be the life of the party.
e|-3-----------------------------------3---3----------------------------3----|
B|-3-----------------------------------3---3----------------------------3----|
G|-0-----------------------------------0---0----------------------------0----|
D|-0-----------------------------------0---2----------------------------0----|
A|-2-----------------------------------3---2----------------------------3----|
E|-3-------------------------------------------------------------------------|

  I'm telling you to take your shot it might be scary. Hearts are gonna break.
e|-3----------------------------------------------3-----3-------------------3-|
B|-3----------------------------------------------3-----3-------------------3-|
G|-0----------------------------------------------0-----0-------------------0-|
D|-0----------------------------------------------0-----2-------------------0-|
A|-2----------------------------------------------3-----2-------------------3-|
E|-3--------------------------------------------------------------------------|

  Cause we don't have the time to be sorry. So baby be the life of the party.
e|-3-----------------------------------3---3----------------------------3----|
B|-3-----------------------------------3---3----------------------------3----|
G|-0-----------------------------------0---0----------------------------0----|
D|-0-----------------------------------0---2----------------------------0----|
A|-2-----------------------------------3---2----------------------------3----|
E|-3-------------------------------------------------------------------------|

   Palm Muted
e|-3-3-3-3-3-3--3-3-3-3-3-0--3-3-3-3-3-3---3---3--3-3-3-3-3-3----------------|
B|-3-3-3-3-3-3--3-3-3-3-3-1--3-3-3-3-3-3---3---3--3-3-3-3-3-3----------------|
G|-0-0-0-0-0-0--0-0-0-0-0-0--0-0-0-0-0-0-h-2-p-0--0-0-0-0-0-0----------------|
D|-2-2-2-2-2-2--0-0-0-0-0-2--2-2-2-2-2-0---0---0--0-0-0-0-0-0----------------|
A|-2-2-2-2-2-2--0-0-0-0-0-0--2-2-2-2-2-3---3---3--0-0-0-0-0-0----------------|
E|--------------3-3-3-3-3-------------------------3-3-3-3-3-3----------------|

   Palm Muted
e|-3-3-3-3-3-3--3-3-3-3-3-0--3-3-3-3-3-3---3---3--3-3-3-3-3-3----------------|
B|-3-3-3-3-3-3--3-3-3-3-3-1--3-3-3-3-3-3---3---3--3-3-3-3-3-3----------------|
G|-0-0-0-0-0-0--0-0-0-0-0-0--0-0-0-0-0-0-h-2-p-0--0-0-0-0-0-0----------------|
D|-2-2-2-2-2-2--0-0-0-0-0-2--2-2-2-2-2-0---0---0--0-0-0-0-0-0----------------|
A|-2-2-2-2-2-2--0-0-0-0-0-0--2-2-2-2-2-3---3---3--0-0-0-0-0-0----------------|
E|--------------3-3-3-3-3-------------------------3-3-3-3-3-3----------------|

  We don't have to be ordinary. Make your best mistakes.
e|-3------------------------3---3----------------------3---------------------|
B|-3------------------------3---3----------------------3---------------------|
G|-0------------------------0---0----------------------0---------------------|
D|-0------------------------0---2----------------------0---------------------|
A|-2------------------------3---2----------------------3---------------------|
E|-3-------------------------------------------------------------------------|

  Cause we don't have the time to be sorry. Baby be the life of the party.
e|-3-----------------------------------3---3----------------------------3----|
B|-3-----------------------------------3---3----------------------------3----|
G|-0-----------------------------------0---0----------------------------0----|
D|-0-----------------------------------0---2----------------------------0----|
A|-2-----------------------------------3---2----------------------------3----|
E|-3-------------------------------------------------------------------------|

  I'm telling you to take your shot it might be scary. Hearts are gonna break.
e|-3----------------------------------------------3-----3-------------------3-|
B|-3----------------------------------------------3-----3-------------------3-|
G|-0----------------------------------------------0-----0-------------------0-|
D|-0----------------------------------------------0-----2-------------------0-|
A|-2----------------------------------------------3-----2-------------------3-|
E|-3--------------------------------------------------------------------------|

  Cause we don't have the time to be sorry. So baby be the life of the party.
e|-3-----------------------------------3---3----------------------------3----|
B|-3-----------------------------------3---3----------------------------3----|
G|-0-----------------------------------0---0----------------------------0----|
D|-0-----------------------------------0---2----------------------------0----|
A|-2-----------------------------------3---2----------------------------3----|
E|-3-------------------------------------------------------------------------|

  Come out tonight, come out tonight. There's no one standing in your way.
e|-3-------------------------- --3---3----------------------------------3----|
B|-3-----------------------------3---3----------------------------------3----|
G|-0-----------------------------0---0----------------------------------0----|
D|-0-----------------------------0---2----------------------------------0----|
A|-2-----------------------------3---2----------------------------------3----|
E|-3-------------------------------------------------------------------------|

 Come out tonight, come out tonight. We don't care what them people say
                                     We don't care what them people say
e|-3-------------------------- --3---3--------------------------------3------|
B|-3-----------------------------3---3--------------------------------3------|
G|-0-----------------------------0---0--------------------------------0------|
D|-0-----------------------------0---2--------------------------------0------|
A|-2-----------------------------3---2--------------------------------3------|
E|-3-------------------------------------------------------------------------|

  We don't have to be ordinary. Make your best mistakes.
e|-3------------------------3---3----------------------3---------------------|
B|-3------------------------3---3----------------------3---------------------|
G|-0------------------------0---0----------------------0---------------------|
D|-0------------------------0---2----------------------0---------------------|
A|-2------------------------3---2----------------------3---------------------|
E|-3-------------------------------------------------------------------------|

  Cause we don't have the time to be sorry. Baby be the life of the party.
e|-3-----------------------------------3---3----------------------------3----|
B|-3-----------------------------------3---3----------------------------3----|
G|-0-----------------------------------0---0----------------------------0----|
D|-0-----------------------------------0---2----------------------------0----|
A|-2-----------------------------------3---2----------------------------3----|
E|-3-------------------------------------------------------------------------|

  I'm telling you to take your shot it might be scary. Hearts are gonna break.
e|-3----------------------------------------------3-----3-------------------3-|
B|-3----------------------------------------------3-----3-------------------3-|
G|-0----------------------------------------------0-----0-------------------0-|
D|-0----------------------------------------------0-----2-------------------0-|
A|-2----------------------------------------------3-----2-------------------3-|
E|-3--------------------------------------------------------------------------|

  Cause we don't have the time to be sorry. So baby be the life of the party.
e|-3-----------------------------------3---3----------------------------3----|
B|-3-----------------------------------3---3----------------------------3----|
G|-0-----------------------------------0---0----------------------------0----|
D|-0-----------------------------------0---2----------------------------0----|
A|-2-----------------------------------3---2----------------------------3----|
E|-3-------------------------------------------------------------------------|


************************************

| /   slide up
| \   slide down
| h   hammer-on
| p   pull-off
| ~   vibrato
| +   harmonic
| x   Mute note
| b   Bend
| pb  Pre-bend
| br  Bend release
| pbr Pre-bend release
| brb Bend release bend

Other versions of Life Of The Party Acoustic

Life of the partyChords
Life of the party acousticChords
Life of the party acoustic (Ver. 2)Chords
Life of the party ukuleleChords
Life of the party0Chords
Life of the partyTabs

Almost there ...

Sign in to get your own page with links to favourite songs and more. You are just one click away...

Login with Facebook Login with Google