Search tabs and chords

Search for song, artist or band

Log in

One click and you are in

Login with Facebook Login with Google

Why sign up and log in

Guitar Tabs Explorer
Shawn Mendes guitar tabs for Lide of the party intro

Guitar tabs

-------------------------------------------------------------------------------
                             life of the  party - Shawn Mendes
------------------------------------------------------------------------------
Tabbed by:
E chord diagramEE-mail:

Tuning:standard
capo 1st fret

e|---------------------------------------------------------------------------|
B|---------------------------------------------------------------------------|
G|-0-0-0---0--0--0-0---0---------------------------------------------- ------|x4
D|---------------------------------------------------------------------------|
A|-------3-----------0-------------------------------------------------------|
E|-0----------3--------------------------------------------------------------|
  ddu udududu  ddu  udududu
e|-3---3--------3-----3-------------------------------------------------------------|
B|-3---3--------3-----3-------------------------------------------------------------|
G|-0---0--------0-----0-------------------------------------------------------------|
D|-0---2--------2-----2-------------------------------------------------------------|x6
A|-2---3--------2-----3-------------------------------------------------------------|
E|-3---0--------0-----0-------------------------------------------------------------|


************************************

| d   strum down
| u   strum up

Almost there ...

Sign in to get your own page with links to favourite songs and more. You are just one click away...

Login with Facebook Login with Google