Search tabs and chords

Search for song, artist or band

Log in

One click and you are in

Login with Facebook Login with Google

Why sign up and log in

Guitar Tabs Explorer
Shawn Mendes guitar tabs for Kid in love intro

Guitar tabs with lyrics

-------------------------------------------------------------------------------
                             KID IN LOVE - Shawn Mendes
-------------------------------------------------------------------------------

NOTE: There's another version with 3 bar chords and since I'm a beginner (who's finally
started learning bar chords), I couldn't play it well. So I took the chords from the
strum chords and played it by ear. If you see any mistakes, please correct it.

NO CAPO
Standard Tuning

e|--3--3--x---3-------0-------3-------------------------------------------------|
B|--3-----x---2--2----1--1----3-------------------------------------------------|
G|--0-----x---3-------0-------0-------------------------------------------------|
D|--2-----x---0-------2-------0-------------------------------------------------|
A|--2-----x-----------3-------2-----0--5----------------------------------------|
E|--------x-------------------3---3---------------------------------------------|

************************************

| /   slide up
| \   slide down
| h   hammer-on
| p   pull-off
| ~   vibrato
| +   harmonic
| x   Mute note
| b   Bend
| pb  Pre-bend
| br  Bend release
| pbr Pre-bend release
| brb Bend release bend

Other versions of Kid In Love Intro

Kid in LoveChords
Kid in Love - IntroTabs

Almost there ...

Sign in to get your own page with links to favourite songs and more. You are just one click away...

Login with Facebook Login with Google