Search tabs and chords

Search for song, artist or band

Log in

One click and you are in

Login with Facebook Login with Google

Why sign up and log in

Guitar Tabs Explorer
Shawn Mendes bass tabs for In my blood

Bass tabs

Tuning: Standard (E A D G)

Difficulty: Novice


Tuning: Drop D (DADG)

Key: F Major

Verse 1 (0:00-0:42)

G|--------------------------------|--------------------------------|
D|--------------------------------|--------------------------------| x6
A|--------------------------------|--------------------------------|
D|--------------------------------|--------------------------------|
  1   &   2   &   3   &   4   &    1   &   2   &   3   &   4   &

Pre-chorus (0:41-1:09)

G|--------------------------------|--------------------------------|
D|--------------------------------|--------------------------------|
A|--------------------------------|1-------1-------1-------1-------|
D|3-------3-------3-------3-------|--------------------------------|
  1   &   2   &   3   &   4   &    1   &   2   &   3   &   4   &
G|--------------------------------|--------------------------------|
D|--------------------------------|--------------------------------|
A|5-------5-------5-------5-------|1-------1-------1-------1-------|
D|--------------------------------|--------------------------------|
  1   &   2   &   3   &   4   &    1   &   2   &   3   &   4   &
G|--------------------------------|--------------------------------|
D|--------------------------------|--------------------------------|
A|--------------------------------|1---1---1---1---1---1---1---1---|
D|3---3---3---3---3---3---3---3---|--------------------------------|
  1   &   2   &   3   &   4   &    1   &   2   &   3   &   4   &
G|--------------------------------|--------------------------------|
D|--------------------------------|--------------------------------|
A|5---5---5---5---5---5---5---5---|1---1---1---1---1---1---1---1/--|
D|--------------------------------|--------------------------------|
  1   &   2   &   3   &   4   &    1   &   2   &   3   &   4   &

Chorus (1:09-1:22)

G|--------------------------------|--------------------------------|
D|--------------------------------|--------------------------------|
A|--------------------------------|1-1-1-1-1-1-1-1-1-1-1-1-1-1-1-1-|
D|3-3-3-3-3-3-3-3-3-3-3-3-3-3-3-3-|--------------------------------|
  1   &   2   &   3   &   4   &    1   &   2   &   3   &   4   &
G|--------------------------------|--------------------------------|
D|--------------------------------|--------------------------------|
A|--------------------------------|1-1-1-1-1-1-1-1-1-1-1-1-1-1-----|
D|0-0-0-0-0-0-0-0-0-0-0-0-0-0-0-0-|--------------------------------|
  1   &   2   &   3   &   4   &    1   &   2   &   3   &   4   &

Verse 2 (1:22-1:36)

G|--------------------------------|--------------------------------|
D|--------------------------------|--------------------------------| x6
A|--------------------------------|--------------------------------|
D|--------------------------------|--------------------------------|
  1   &   2   &   3   &   4   &    1   &   2   &   3   &   4   &

Pre-chorus (1:36-2:03)

G|--------------------------------|--------------------------------|
D|--------------------------------|--------------------------------|
A|--------------------------------|1---1---1---1---1---1---1---1---|
D|3---3---3---3---3---3---3---3---|--------------------------------|
  1   &   2   &   3   &   4   &    1   &   2   &   3   &   4   &
G|--------------------------------|--------------------------------|
D|--------------------------------|--------------------------------|
A|5---5---5---5---5---5---5---5---|1---1---1---1---1---1---1---1---|
D|--------------------------------|--------------------------------|
  1   &   2   &   3   &   4   &    1   &   2   &   3   &   4   &
G|--------------------------------|--------------------------------|
D|--------------------------------|--------------------------------|
A|--------------------------------|1---1---1---1---1---1---1---1---|
D|3---3---3---3---3---3---3---3---|--------------------------------|
  1   &   2   &   3   &   4   &    1   &   2   &   3   &   4   &
G|--------------------------------|--------------------------------|
D|--------------------------------|--------------------------------|
A|5---5---5---5---5---5---5---5---|1---1---1---1---1---1---1---1/--|
D|--------------------------------|--------------------------------|
  1   &   2   &   3   &   4   &    1   &   2   &   3   &   4   &

Chorus (2:03-2:31)

G|--------------------------------|--------------------------------| ***
D|--------------------------------|--------------------------------|   *
A|--------------------------------|1-1-1-1-1-1-1-1-1-1-1-1-1-1-1-1-|   *
D|3-3-3-3-3-3-3-3-3-3-3-3-3-3-3-3-|--------------------------------|   *
  1   &   2   &   3   &   4   &    1   &   2   &   3   &   4   &       * x2
G|--------------------------------|--------------------------------|   *
D|--------------------------------|--------------------------------|   *
A|--------------------------------|1-1-1-1-1-1-1-1-1-1-1-1-1-1-1-1-|   *
D|0-0-0-0-0-0-0-0-0-0-0-0-0-0-0-0-|--------------------------------| ***
  1   &   2   &   3   &   4   &    1   &   2   &   3   &   4   &

Bridge (2:31-2:44)

G|--------------------------------|--------------------------------|
D|--------------------------------|--------------------------------|
A|--------------------------------|--------------------------------|
D|--------------------------------|--------------------------------|
  1   &   2   &   3   &   4   &    1   &   2   &   3   &   4   &
G|--------------------------------|--------------------------------|
D|--------------------------------|--------------------------------|
A|--------------------------------|1---1---1---1---1---1---1/------|
D|--------------------------------|--------------------------------|
  1   &   2   &   3   &   4   &    1   &   2   &   3   &   4   &

Chorus (2:44-3:11)

G|--------------------------------|--------------------------------| ***
D|--------------------------------|--------------------------------|   *
A|--------------------------------|1-1-1-1-1-1-1-1-1-1-1-1-1-1-1-1-|   *
D|3-3-3-3-3-3-3-3-3-3-3-3-3-3-3-3-|--------------------------------|   *
  1   &   2   &   3   &   4   &    1   &   2   &   3   &   4   &       * x2
G|--------------------------------|--------------------------------|   *
D|--------------------------------|--------------------------------|   *
A|--------------------------------|1-1-1-1-1-1-1-1-1-1-1-1-1-1-1-1-|   *
D|0-0-0-0-0-0-0-0-0-0-0-0-0-0-0-0-|--------------------------------| ***
  1   &   2   &   3   &   4   &    1   &   2   &   3   &   4   &

Almost there ...

Sign in to get your own page with links to favourite songs and more. You are just one click away...

Login with Facebook Login with Google