Search tabs and chords

Search for song, artist or band

Log in

One click and you are in

Login with Facebook Login with Google

Why sign up and log in

Guitar Tabs Explorer
Shawn Mendes guitar tabs for In my blood acoustic

Intro

Tuning: Standard (E A D G B E)

Difficulty: Novice
Intro:

e|---------------------------------------------------------------------------|
B|----10-10---10-10---10-10---10-10---3-3---3-3---3-3---3-/5-5------- 4-4----|
G|---------------------------------------------------------------------------|
D|---------------------------------------------------------------------------|
A|-8--------8-------8-------8-------1-----1-----1-----1---------3-/5---------|
E|---------------------------------------------------------------------------|

e|---------------------------------------------------------------------------|
B|----4-4---4-4---8-----3-3---3-3---3-3---3-3--------------------------------|
G|---------------------------------------------------------------------------|
D|---------------------------------------------------------------------------|
A|-5-----5-----5-----1-----1-----1-----1-------------------------------------|
E|---------------------------------------------------------------------------|

If you view this tab as wrong it may be my notation of the rhythm that I have tabbed slightly wrong
if you wish to use your own rhythm and slides, the chords you should play around are as follows:

e|---------------------|
B|-10--3---5---4---3---|
G|---------------------|
D|---------------------|
A|-8---1---3---5---1---|
E|---------------------|
I would recommend a pick of the 8 on the A chord diagramBB as shown in the tab above.

Amp settings:

Reverb: 9
Volume: 6 (can be altered but it is what I used)
Bass: 7
Mid: 5
Treble: 8
Gain: 5


Tabbed by James Evans by ear.



************************************

| /  Slide up


************************************

Other versions of In My Blood Acoustic

In my bloodChords
In my blood (Ver. 2)Chords
In my blood (Ver. 3)Chords
In my blood (Ver. 4)Chords
In my blood (Ver. 5)Chords
In my blood acousticChords
In my blood ukuleleChords
In my bloodTabs
In my blood - introTabs

Almost there ...

Sign in to get your own page with links to favourite songs and more. You are just one click away...

Login with Facebook Login with Google