Search tabs and chords

Search for song, artist or band

Log in

One click and you are in

Login with Facebook Login with Google

Why sign up and log in

Guitar Tabs Explorer
Shawn Mendes guitar chords for In my blood (Ver. 4)

Guitar chords with lyrics

  • Capo on 5th
Tuning: Standard (E chord diagramEE A chord diagramAA D chord diagramDD G chord diagramGG B chord diagramBB E chord diagramEE)

Intro:
   C chord diagramCC                     F chord diagramFF                       Am chord diagramAmAm                       F chord diagramFF
e|-0-----0-----0-----0-----------------------------------------------------------------------------|
B|-----1-----1-----1-------------------------------------------------------------------------------|
G|-------------------------2-----2-----2-----2-----2-----2-----2-----0h2---2-----2-----2-----2-----|
D|-----------------------3-----3-----3-----3-----2-----2-----2-----2-----------3-----3-----3-----3-|
A|-------------------------------------------------------------------------------------------------|
E|-------------------------------------------------------------------------------------------------|
C chord diagramCC                       F chord diagramFF
Help me, it’s like the walls are caving in
    Am chord diagramAmAm
Sometimes I feel like giving up
    F chord diagramFF
But I just can’t
                C chord diagramCC
It isn’t in my blood


Verse 1:
                                             F chord diagramFF
Laying on the bathroom floor, feeling nothing
                                               Am chord diagramAmAm
I’m overwhelmed and insecure, give me something
                                   F chord diagramFF
I could take to ease my mind slowly
                                   C chord diagramCC
Just have a drink and you’ll feel better
                                    F chord diagramFF
Just take her home and you’ll feel better
                              Am chord diagramAmAm
Keep telling me that it gets better
         F chord diagramFF
Does it ever?

Pre-Chorus:
C chord diagramCC                      F chord diagramFF
Help me, it’s like the walls are caving in
    Am chord diagramAmAm
Sometimes I feel like giving up
    F chord diagramFF
No medicine is strong enough
        C chord diagramCC
Someone help me
      F chord diagramFF
I’m crawling in my skin
     Am chord diagramAmAm
Sometimes I feel like giving up
    F chord diagramFF
But I just can’t


Chorus:
                 C chord diagramCC          F chord diagramFF
It isn’t in my blood

e|-0-0-0-0-1-1-1-1---------0-0-0-0-|
B|-----------------3-3-3-3---------|
G|---------------------------------|
D|---------------------------------| x4
A|---------------------------------|
E|---------------------------------|

                 Am chord diagramAmAm         F chord diagramFF
It isn’t in my blood


Verse 2:
C chord diagramCC                                                  F chord diagramFF
  I’m looking though my phone again, feeling anxious
                                     Am chord diagramAmAm
Afraid to be alone again, I hate this
                                            F chord diagramFF
I’m tryna find a way to chill, can’t breathe oh

Is this somebody who could


Pre-Chorus:
C chord diagramCC                      F chord diagramFF
Help me, it’s like the walls are caving in
    Am chord diagramAmAm
Sometimes I feel like giving up
    F chord diagramFF
No medicine is strong enough
        C chord diagramCC
Someone help me
      F chord diagramFF
I’m crawling in my skin
     Am chord diagramAmAm
Sometimes I feel like giving up
    F chord diagramFF
But I just can’t


Chorus:
                 C chord diagramCC          F chord diagramFF
It isn’t in my blood
                 Am chord diagramAmAm          F chord diagramFF
It isn’t in my blood
                 C chord diagramCC
I need somebody now
                 F chord diagramFF
I need somebody now
                    Am chord diagramAmAm
Someone to help me out
                 F chord diagramFF
I need somebody now


Pre-Chorus:
C chord diagramCC                      F chord diagramFF
Help me, it’s like the walls are caving in
    Am chord diagramAmAm
Sometimes I feel like giving up
    F chord diagramFF
But I just can’t


Chorus:
                 C chord diagramCC          F chord diagramFF
It isn’t in my blood
                 Am chord diagramAmAm          F chord diagramFF
It isn’t in my blood
                 C chord diagramCC
It isn’t in my blood
                 F chord diagramFF
I need somebody now
                 Am chord diagramAmAm
It isn’t in my blood
                 F chord diagramFF
I need somebody now
                 C chord diagramCC
It isn’t in my blood


Outro:
   C chord diagramCC                     F chord diagramFF                       Am chord diagramAmAm                       F chord diagramFF
e|-0-----0-----0-----0-------------------------------------------------------|
B|-----1-----1-----1---------------------------------------------------------|
G|-------------------------2-----2-----2-----2-----2-----2-----2-----0h2---2-|
D|-----------------------3-----3-----3-----3-----2-----2-----2-----2---------|
A|---------------------------------------------------------------------------|
E|---------------------------------------------------------------------------|

Other versions of In My Blood

In my bloodChords
In my blood (Ver. 2)Chords
In my blood (Ver. 3)Chords
In my blood (Ver. 5)Chords
In my blood acousticChords
In my blood ukuleleChords
In my bloodTabs
In my blood - introChords
In my blood acoustic - introChords

Almost there ...

Sign in to get your own page with links to favourite songs and more. You are just one click away...

Login with Facebook Login with Google