Search tabs and chords

Search for song, artist or band

Log in

One click and you are in

Login with Facebook Login with Google

Why sign up and log in

Guitar Tabs Explorer
Shawn Mendes guitar tabs for If i cant have you

Guitar tabs

  • Capo on 2nd
Tuning: Standard (E A D G B E)

Difficulty: Intermediate

https://www.youtube.com/watch?v=RnS7yIyQnEk

Intro:
e|------------------------------------------------------------------------------------|
B|-1-1--1---1--1-1--1-3-3/5\3--1-1--1---1--1-1--1-3-3/5\3--1-1--1---1--1-1--1-3-3/5\3-|
G|-2-2--2---0--2-2--2----------2-2--2---0--2-2--2----------2-2--2---0--2-2--2---------|
D|-3-3--3---2--0-0--0----------3-3--3---2--0-0--0----------3-3--3---2--0-0--0---------|
A|------------------------------------------------------------------------------------|
E|-1------0-----------0--------1------0-----------0--------1------0-----------0-------|

e|-3/5--------------------------------------------------------------------------------|
B|-----5/8----------------------------------------------------------------------------|
G|---------7/10-5-7---------5---------------------------------------------------------|
D|-3------------------5-5---5---------------------------------------------------------|
A|--------------------5---5-----------------------------------------------------------|
E|---------0--------------------------------------------------------------------------|


Verse:
e|-----------------------------------------------------------------------------------------|
B|-----------------------------------------------------------------------------------------|
G|--------------7-7h9-7-------5h7-----7------------5----5h7---7-------5---5h7-------------5|
D|------10--------------10-7--5-------5-----5/7------7--5---------7-7---7-5-----7---5/7----|
A|-x-10----10-x---------x-------------x-----0---0--x----5---5-x-5---------5---5---5-0---0--|
E|-x----------x---------x-----0----0--x--0---------x----------x----------------------------|

e|-----------------------------------------------------------------------------------------|
B|-----------------------------------------------------------------------------------------|
G|-5-------------7-7h9-7-------5h7-----7------------5----5h7---7-------5---5h7-------------|
D|-------10--------------10-7--5-------5-----5/7------7--5---------7-7---7-5-----7---5/7---|
A|--x-10----10-x---------x-------------x-----0---0--x----5---5-x-5---------5---5---5-0---0-|
E|--x----------x---------x-----0----0--x--0---------x----------x---------------------------|

e|-1h3------------3-3-1--0------------1h3----------3--3-1-0--------3/5--3-0---------3-3-1--|
B|-1----------------0------1h3--1---1-0---------------0-0----1h3-1------1-1-----------0----|
G|-2----------2-----0------0----0-----2----------2----2------0---0------2-2---2-------0----|
D|-------------------------2----2-----0----0---0-0----0-0-0--0---0------3-3-3--------------|
A|-------x------x-----x----0----0-x-0--------x-----------------------------------x---------|
E|-1---1-x-1--1-x---0-x--0--------x----------x---------------0---0---------------x----0-0--|

e|---0-------------------------------------------------------------------------------------|
B|------1h3--1----1h3----1-----------------------------------------------------------------|
G|------0----0----2----2----0h2------------------------------------------------------------|
D|------2----2----3--------------0h2---0---------------------------------------------------|
A|-x----0----0-0--------------------------------x-x----------------------------------------|
E|-x-0------------1---------0---------/10-8-8\--x-x----------------------------------------|

Chorus:
e|------------------------------------------------------------------------------------|
B|-1-1--1---1--1-1--1-3-3/5\3--1-1--1---1--1-1--1-3-3/5\3--1-1--1---1--1-1--1-3-3/5\3-|
G|-2-2--2---0--2-2--2----------2-2--2---0--2-2--2----------2-2--2---0--2-2--2---------|
D|-3-3--3---2--0-0--0----------3-3--3---2--0-0--0----------3-3--3---2--0-0--0---------|
A|------------------------------------------------------------------------------------|
E|-1------0-----------0--------1------0-----------0--------1------0-----------0-------|

e|-3/5--------------------------------------------------------------------------------|
B|-----5/8----------------------------------------------------------------------------|
G|---------7/10-5-7---------5---------------------------------------------------------|
D|-3------------------5-5---5---------------------------------------------------------|
A|--------------------5---5-----------------------------------------------------------|
E|---------0--------------------------------------------------------------------------|

e|--------------------------------------------------------------------------------------|
B|-1---1---1----1---1---1----1-3-3/5\3---1---1---1---1---1---1----1-3-3/5\3-------------|
G|-2---2---2----2---2---2----------------2---2---2---2---2---2--------------------------|
D|-3---3---3----2---3-3---3--------------3---3---3---2---3-3---3------------------------|
A|-----x--------x-------x--------x-----------x-------x-------x--------x-----------------|
E|-1-1-x-1----0-x-0-----x------0-x-------1-1-x-1---0-x-0-----x------0-x-----------------|

e|-3---3---3---0----3---3---------------3/5------------------------------------------|
B|-1---1---1---1----1---1----1-3-3/5\3------5/8--------------------------------------|
G|-2---2---2---2----2---2-----------------------7/10-5/7--------5--------------------|
D|--------------------3---3-------------3-----------------5-5---5--------------------|
A|-----x-------x--------x--------x------------------------5---5----------------------|
E|-1-1-x-1---0-x-0------x------0-x--------------0------------------------------------|

Verse:
e|-----------------------------------------------------------------------------------------|
B|-----------------------------------------------------------------------------------------|
G|--------------7-7h9-7-------5h7-----7------------5----5h7---7-------5---5h7-------------5|
D|------10--------------10-7--5-------5-----5/7------7--5---------7-7---7-5-----7---5/7----|
A|-x-10----10-x---------x-------------x-----0---0--x----5---5-x-5---------5---5---5-0---0--|
E|-x----------x---------x-----0----0--x--0---------x----------x----------------------------|

e|-----------------------------------------------------------------------------------------|
B|-----------------------------------------------------------------------------------------|
G|-5-------------7-7h9-7-------5h7-----7------------5----5h7---7-------5---5h7-------------|
D|-------10--------------10-7--5-------5-----5/7------7--5---------7-7---7-5-----7---5/7---|
A|--x-10----10-x---------x-------------x-----0---0--x----5---5-x-5---------5---5---5-0---0-|
E|--x----------x---------x-----0----0--x--0---------x----------x---------------------------|

e|-1h3------------3-3-1--0------------1h3----------3--3-1-0--------3/5--3-0---------3-3-1--|
B|-1----------------0------1h3--1---1-0---------------0-0----1h3-1------1-1-----------0----|
G|-2----------2-----0------0----0-----2----------2----2------0---0------2-2---2-------0----|
D|-------------------------2----2-----0----0---0-0----0-0-0--0---0------3-3-3--------------|
A|-------x------x-----x----0----0-x-0--------x-----------------------------------x---------|
E|-1---1-x-1--1-x---0-x--0--------x----------x---------------0---0---------------x----0-0--|

e|---0-------------------------------------------------------------------------------------|
B|------1h3--1----1h3----1-----------------------------------------------------------------|
G|------0----0----2----2----0h2------------------------------------------------------------|
D|------2----2----3--------------0h2---0---------------------------------------------------|
A|-x----0----0-0--------------------------------x-x----------------------------------------|
E|-x-0------------1---------0---------/10-8-8\--x-x----------------------------------------|

Chorus:
e|------------------------------------------------------------------------------------|
B|-1-1--1---1--1-1--1-3-3/5\3--1-1--1---1--1-1--1-3-3/5\3--1-1--1---1--1-1--1-3-3/5\3-|
G|-2-2--2---0--2-2--2----------2-2--2---0--2-2--2----------2-2--2---0--2-2--2---------|
D|-3-3--3---2--0-0--0----------3-3--3---2--0-0--0----------3-3--3---2--0-0--0---------|
A|------------------------------------------------------------------------------------|
E|-1------0-----------0--------1------0-----------0--------1------0-----------0-------|

e|-3/5--------------------------------------------------------------------------------|
B|-----5/8----------------------------------------------------------------------------|
G|---------7/10-5-7---------5---------------------------------------------------------|
D|-3------------------5-5---5---------------------------------------------------------|
A|--------------------5---5-----------------------------------------------------------|
E|---------0--------------------------------------------------------------------------|

e|--------------------------------------------------------------------------------------|
B|-1---1---1----1---1---1----1-3-3/5\3---1---1---1---1---1---1----1-3-3/5\3-------------|
G|-2---2---2----2---2---2----------------2---2---2---2---2---2--------------------------|
D|-3---3---3----2---3-3---3--------------3---3---3---2---3-3---3------------------------|
A|-----x--------x-------x--------x-----------x-------x-------x--------x-----------------|
E|-1-1-x-1----0-x-0-----x------0-x-------1-1-x-1---0-x-0-----x------0-x-----------------|

e|-3---3---3---0----3---3---------------3/5------------------------------------------|
B|-1---1---1---1----1---1----1-3-3/5\3------5/8--------------------------------------|
G|-2---2---2---2----2---2-----------------------7/10-5/7--------5 -------------------|
D|--------------------3---3-------------3-----------------5-5---5--------------------|
A|-----x-------x--------x--------x------------------------5---5----------------------|
E|-1-1-x-1---0-x-0------x------0-x--------------0------------------------------------|

Bridge:

e|---0------0------------------------0--0h3p0--------------0h3p0------------------|
B|-1---3--1---3-----1-3/5--5\3-----1----1-----h3-1h3p1-----1-----h3-1h3p1---------|
G|-2------------------------------------2--------0-----2---2--------0-----2-------|
D|-0---------------------------------------------0------------------0-------------|
A|-0----------------------------0-------------------------------------------------|
E|-1-------------0-------------------------------0-------1-0--------0-------------|

e|----0-----0--------------------0-3/5--------------------------------------------|
B|-1----3-1---3----1-3/5-5\3---1-------5/8----------------------------------------|
G|-2---------------------------------------7/10--5-7--------5---------------------|
D|-0-------------------------------3------------------5-5---5---------------------|
A|-0-------------------------0------------------------5---5-----------------------|
E|-1-------------0-------------------------0--------------------------------------|

Chorus:
e|------------------------------------------------------------------------------------|
B|-1-1--1---1--1-1--1-3-3/5\3--1-1--1---1--1-1--1-3-3/5\3--1-1--1---1--1-1--1-3-3/5\3-|
G|-2-2--2---0--2-2--2----------2-2--2---0--2-2--2----------2-2--2---0--2-2--2---------|
D|-3-3--3---2--0-0--0----------3-3--3---2--0-0--0----------3-3--3---2--0-0--0---------|
A|------x-----------x---------------x-----------x---------------x-----------x---------|
E|-1----x-0---------x-0--------1----x-0---------x-0--------1----x-0---------x-0------|

e|-3/5--------------------------------------------------------------------------------|
B|-----5/8----------------------------------------------------------------------------|
G|---------7/10-5-7---------5---------------------------------------------------------|
D|-3------------------5-5---5---------------------------------------------------------|
A|--------------------5---5-----------------------------------------------------------|
E|---------0--------------------------------------------------------------------------|

e|--------------------------------------------------------------------------------------|
B|-1---1---1----1---1---1----1-3-3/5\3---1---1---1---1---1---1----1-3-3/5\3-------------|
G|-2---2---2----2---2---2----------------2---2---2---2---2---2--------------------------|
D|-3---3---3----2---3-3---3--------------3---3---3---2---3-3---3------------------------|
A|-----x--------x-------x--------x-----------x-------x-------x--------x-----------------|
E|-1-1-x-1----0-x-0-----x------0-x-------1-1-x-1---0-x-0-----x------0-x-----------------|

                                          t t t t t  t t
e|-3---3---3---0----3---3---------------3-5------------------------------------------|
B|-1---1---1---1----1---1----1-3-3/5\3------5-8--------------------------------------|
G|-2---2---2---2----2---2-----------------------7-10-5-7--------5\-------------------|
D|--------------------3---3-------------3-----------------5-5---5\-------------------|
A|-----x-------x--------x--------x------------------------5---5----------------------|
E|-1-1-x-1---0-x-0------x------0-x--------------0------------------------------------|


************************************

| x   Dead note
| h   Hammer-on
| p   Pull-off
| t   Tapping
| /   Slide up
| \   Slide down

************************************

Other versions of If I Can't Have You

If I can't have youChords
If I can't have you (Ver. 2)Chords
If I can't have you ukuleleChords

Almost there ...

Sign in to get your own page with links to favourite songs and more. You are just one click away...

Login with Facebook Login with Google