Search tabs and chords

Search for song, artist or band

Log in

One click and you are in

Login with Facebook Login with Google

Why sign up and log in

Guitar Tabs Explorer
Shawn Mendes guitar chords for Fallin all in you (Ver. 2)

Guitar chords with lyrics

  • Capo on 1st
Tuning: Standard (E chord diagramEE A chord diagramAA D chord diagramDD G chord diagramGG B chord diagramBB E chord diagramEE)

Difficulty: Novice

Intro:

   G chord diagramGG
e|-----x-------x-------x-------x---|
B|-0---x-0-----x---0---x-0-----x---|
G|-0---x-0-----x---0---x-0-----x---|
D|-----x-------x-------x-------x---|
A|-----x-------x-------x-------x---|
E|-3---x-3-----x---3---x-3-----x---|
Verse 1:

   G chord diagramGG                               Em chord diagramEmEm                              C chord diagramCC               D chord diagramDD
e|-----x-------x-------x-------x-------x-------x-------x-------x---0---x-0-----x---2---x-2-----x--|
B|-0---x-0-----x---0---x-0-----x-------x-------x-------x-------x---1---x-1-----x---3---x-3-----x--|
G|-0---x-0-----x---0---x-0-----x---0---x-0-----x---0---x-0-----x-------x-------x-------x-------x--|
D|-----x-------x-------x-------x---2---x-2-----x---2---x-2-----x-------x-------x---0---x-0-----x--|
A|-----x-------x-------x-------x-------x-------x-------x-------x---3---x-3-----x-------x-------x--|
E|-3---x-3-----x---3---x-3-----x---0---x-0-----x---0---x-0-----x-------x-------x-------x-------x--|

G chord diagramGG
 Sunrise with you on my chest
                                   Em chord diagramEmEm
No blinds in the place where I live

Daybreak open your eyes

'Cause this was only ever meant to be for one night
      C chord diagramCC                             D chord diagramDD
Still, we're changing our minds here
                    G chord diagramGG
Be yours, be my dear

   G chord diagramGG                               Em chord diagramEmEm                              C chord diagramCC               D chord diagramDD
e|---------------------------------------------------------------------------0---------------2----|
B|-----------0---------------0-----------------------------------------1---------------3----------|
G|-----0---------------0---------------------0---------------0-------0-----0---------2-----2------|
D|---0-----0---------0-----0-----------2---------------2---------------------------0-----0--------|
A|-----------------------------------2-----2---------2-----2-------3-----3------------------------|
E|-3-----3---------3-----3---------0-----0---------0-----0----------------------------------------|


So close with you on my lips
                                Em chord diagramEmEm
Touch noses, feeling your breath

Push your heart and pull away, yeah
                                 C chord diagramCC
Be my summer in a winter day love
                           D chord diagramDD
I can't see one thing wrong
                      G chord diagramGG
Between the both of us

Be mine, be mine, yeah

Anytime, anytime


Pre-Chorus:
Em chord diagramEmEm                 C chord diagramCC                       G chord diagramGG             D chord diagramDD
Ooh you know I've been alone for quite a while, haven't I
                     Em chord diagramEmEm
I thought I knew it all
                       C chord diagramCC
Found love but I was wrong
                  G chord diagramGG
More times than enough
                     D chord diagramDD
But since you came along

I'm thinking baby


Chorus:
G chord diagramGG                                        Em chord diagramEmEm
You are bringing out a different kind of me
                                   C chord diagramCC           D chord diagramDD
There's no safety net that's underneath, I'm free
             G chord diagramGG
Falling all in
                                         Em chord diagramEmEm
You fell for men who weren't how they appear
                                     C chord diagramCC            D chord diagramDD
Trapped up on a tightrope now we're here, we're free
             G chord diagramGG
Falling all in you


Verse 2:
G chord diagramGG
 Fast forward a couple years, yeah
                               Em chord diagramEmEm
Grown up in the place that we live

Make love, then we fight
                                                      C chord diagramCC
Laugh 'cause it was only meant to be for one night baby
                      D chord diagramDD
I guess we can't control
                        G chord diagramGG
What's just not up to us

Be mine, be mine, yeah

Anytime, anytime


Pre-Chorus:
Em chord diagramEmEm                 C chord diagramCC                       G chord diagramGG             D chord diagramDD
Ooh you know I've been alone for quite a while, haven't I
                     Em chord diagramEmEm
I thought I knew it all
                       C chord diagramCC
Found love but I was wrong
                  G chord diagramGG
More times than enough
                     D chord diagramDD
But since you came along

I'm thinking baby


Chorus:
G chord diagramGG                                        Em chord diagramEmEm
You are bringing out a different kind of me
                                   C chord diagramCC           D chord diagramDD
There's no safety net that's underneath, I'm free
             G chord diagramGG
Falling all in
                                         Em chord diagramEmEm
You fell for men who weren't how they appear
                                     C chord diagramCC            D chord diagramDD
Trapped up on a tightrope now we're here, we're free
             G chord diagramGG
Falling all in you


Bridge:
                                 Em chord diagramEmEm
Every time I see you baby I get lost
         C chord diagramCC                                  G chord diagramGG
If I'm dreaming, baby, please don't wake me up
       D chord diagramDD                                 Em chord diagramEmEm
Every night I'm with you I fall more in love
                        C chord diagramCC
Now I'm laying by your side
                  G chord diagramGG                     D chord diagramDD
Everything feels right since you came along

I'm thinking baby


Chorus:
 G chord diagramGG                                              Em chord diagramEmEm
You (Yeah) are bringing out a different kind of me
                                   C chord diagramCC           D chord diagramDD
There's no safety net that's underneath, I'm free
             G chord diagramGG
Falling all in
                                         Em chord diagramEmEm
You fell for men who weren't how they appear (Ooh)
                                     C chord diagramCC            D chord diagramDD
Trapped up on a tightrope now we're here, we're free
             G chord diagramGG
Falling all in


Outro:

e|--------------------------------|
B|-----------0---------------0----|
G|-----0---------------0----------|
D|---0-----0---------0-----0------|
A|--------------------------------|
E|-3-----3---------3-----3--------|

Other versions of Fallin All In You

Fallin All in YouChords

Almost there ...

Sign in to get your own page with links to favourite songs and more. You are just one click away...

Login with Facebook Login with Google