Log in

One click and you are in

Login with Facebook Login with Google

Why sign up and log in

Guitar Tabs Explorer
Shawn Mendes guitar tabs for Dont be a fool

Guitar tabs

Chorus chords:
   A chord diagramA majorA       A chord diagramB minorBm         A chord diagramG MajorG
e|--5---------7---------3--------|
B|--5---------7---------3--------|
G|--6---------7---------4--------|
D|--7---------9---------5--------|
A|--7---------9---------5--------|
E|--5---------7---------3--------|

Verse:
  A chord diagramA majorA                             A chord diagramB minorBm
e|---------------------------------------------------------------------------|
B|-------5--------------5--------------7-------------7-----------------------|
G|-----6---6----------6---6----------7---7---------7---7---------------------|
D|---7-------7------7-------7------9-------9-----9-------9-------------------|
A|-7--------------7----------------------------------------------------------|
E|-------------------------------7-------------7-----------------------------|

  A chord diagramG MajorG                              A chord diagramA majorA
e|---------------------------------------------------------------------------|
B|-------3--------------3--------------5-------------5-----------------------|
G|-----4---4----------4---4----------6---6---------6---6---------------------|
D|---5-------5------5-------5------7-------7-----7-------7-------------------|
A|-------------------------------7-------------7-----------------------------|
E|-3--------------3----------------------------------------------------------|

  A chord diagramA majorA                             A chord diagramB minorBm
e|---------------------------------------------------------------------------|
B|-------5--------------5--------------7-------------7-----------------------|
G|-----6---6----------6---6----------7---7---------7---7---------------------|
D|---7-------7------7-------7------9-------9-----9-------9-------------------|
A|-7--------------7----------------------------------------------------------|
E|-------------------------------7-------------7-----------------------------|

  A chord diagramG MajorG                              A chord diagramA majorA
e|---------------------------------------------------------------------------|
B|-------3--------------3--------------5-------------5-----------------------|
G|-----4---4----------4---4----------6---6---------6---6---------------------|
D|---5-------5------5-------5------7-------7-----7-------7-------------------|
A|-------------------------------7-------------7-----------------------------|
E|-3--------------3----------------------------------------------------------|

Pre-Chorus:
e|---------------------------------------------------------------------------|
B|--------7--------------3--------------5------------5-----------------------|
G|------7---7----------4---4----------6---6--------6---6---------------------|
D|----9-------9------5-------5------7-------7----7------7--------------------|
A|--------------------------------7------------7-----------------------------|
E|--7--------------3---------------------------------------------------------|

e|---------------------------------------------------------------------------|
B|--------7--------------3--------------5------------------------------------|
G|------7---7----------4---4----------6---6----------------------------------|
D|----9-------9------5-------5------7-------7--------------------------------|
A|--------------------------------7------------------------------------------|
E|--7--------------3---------------------------------------------------------|

Chorus:
  A chord diagramA majorA                             A chord diagramB minorBm
e|---------------------------------------------------------------------------|
B|-------5--------------5--------------7-------------7-----------------------|
G|-----6---6----------6---6----------7---7---------7---7---------------------|
D|---7-------7------7-------7------9-------9-----9-------9-------------------|
A|-7--------------7----------------------------------------------------------|
E|-------------------------------7-------------7-----------------------------|

  A chord diagramG MajorG                              A chord diagramA majorA
e|---------------------------------------------------------------------------|
B|-------3--------------3--------------5-------------5-----------------------|
G|-----4---4----------4---4----------6---6---------6---6---------------------|
D|---5-------5------5-------5------7-------7-----7-------7-------------------|
A|-------------------------------7-------------7-----------------------------|
E|-3--------------3----------------------------------------------------------|

  A chord diagramA majorA                             A chord diagramB minorBm
e|---------------------------------------------------------------------------|
B|-------5--------------5--------------7-------------7-----------------------|
G|-----6---6----------6---6----------7---7---------7---7---------------------|
D|---7-------7------7-------7------9-------9-----9-------9-------------------|
A|-7--------------7----------------------------------------------------------|
E|-------------------------------7-------------7-----------------------------|

  A chord diagramG MajorG                              A chord diagramA majorA
e|---------------------------------------------------------------------------|
B|-------3--------------3--------------5-------------5-----------------------|
G|-----4---4----------4---4----------6---6---------6---6---------------------|
D|---5-------5------5-------5------7-------7-----7-------7-------------------|
A|-------------------------------7-------------7-----------------------------|
E|-3--------------3----------------------------------------------------------|

Verse:
  A chord diagramA majorA                             A chord diagramB minorBm
e|---------------------------------------------------------------------------|
B|-------5--------------5--------------7-------------7-----------------------|
G|-----6---6----------6---6----------7---7---------7---7---------------------|
D|---7-------7------7-------7------9-------9-----9-------9-------------------|
A|-7--------------7----------------------------------------------------------|
E|-------------------------------7-------------7-----------------------------|

  A chord diagramG MajorG                              A chord diagramA majorA
e|---------------------------------------------------------------------------|
B|-------3--------------3--------------5-------------5-----------------------|
G|-----4---4----------4---4----------6---6---------6---6---------------------|
D|---5-------5------5-------5------7-------7-----7-------7-------------------|
A|-------------------------------7-------------7-----------------------------|
E|-3--------------3----------------------------------------------------------|

  A chord diagramA majorA                             A chord diagramB minorBm
e|---------------------------------------------------------------------------|
B|-------5--------------5--------------7-------------7-----------------------|
G|-----6---6----------6---6----------7---7---------7---7---------------------|
D|---7-------7------7-------7------9-------9-----9-------9-------------------|
A|-7--------------7----------------------------------------------------------|
E|-------------------------------7-------------7-----------------------------|

  A chord diagramG MajorG                              A chord diagramA majorA
e|---------------------------------------------------------------------------|
B|-------3--------------3--------------5-------------5-----------------------|
G|-----4---4----------4---4----------6---6---------6---6---------------------|
D|---5-------5------5-------5------7-------7-----7-------7-------------------|
A|-------------------------------7-------------7-----------------------------|
E|-3--------------3----------------------------------------------------------|

Chorus:
  A chord diagramA majorA                             A chord diagramB minorBm
e|---------------------------------------------------------------------------|
B|-------5--------------5--------------7-------------7-----------------------|
G|-----6---6----------6---6----------7---7---------7---7---------------------|
D|---7-------7------7-------7------9-------9-----9-------9-------------------|
A|-7--------------7----------------------------------------------------------|
E|-------------------------------7-------------7-----------------------------|

  A chord diagramG MajorG                              A chord diagramA majorA
e|---------------------------------------------------------------------------|
B|-------3--------------3--------------5-------------5-----------------------|
G|-----4---4----------4---4----------6---6---------6---6---------------------|
D|---5-------5------5-------5------7-------7-----7-------7-------------------|
A|-------------------------------7-------------7-----------------------------|
E|-3--------------3----------------------------------------------------------|

  A chord diagramA majorA                             A chord diagramB minorBm
e|---------------------------------------------------------------------------|
B|-------5--------------5--------------7-------------7-----------------------|
G|-----6---6----------6---6----------7---7---------7---7---------------------|
D|---7-------7------7-------7------9-------9-----9-------9-------------------|
A|-7--------------7----------------------------------------------------------|
E|-------------------------------7-------------7-----------------------------|

  A chord diagramG MajorG                              A chord diagramA majorA
e|---------------------------------------------------------------------------|
B|-------3--------------3--------------5-------------5-----------------------|
G|-----4---4----------4---4----------6---6---------6---6---------------------|
D|---5-------5------5-------5------7-------7-----7-------7-------------------|
A|-------------------------------7-------------7-----------------------------|
E|-3--------------3----------------------------------------------------------|

Bridge:
  A chord diagramA majorA                             A chord diagramB minorBm
e|---------------------------------------------------------------------------|
B|-------5--------------5--------------7-------------7-----------------------|
G|-----6---6----------6---6----------7---7---------7---7---------------------|
D|---7-------7------7-------7------9-------9-----9-------9-------------------|
A|-7--------------7----------------------------------------------------------|
E|-------------------------------7-------------7-----------------------------|

  A chord diagramG MajorG                              A chord diagramA majorA
e|---------------------------------------------------------------------------|
B|-------3--------------3--------------5-------------5-----------------------|
G|-----4---4----------4---4----------6---6---------6---6---------------------|
D|---5-------5------5-------5------7-------7-----7-------7-------------------|
A|-------------------------------7-------------7-----------------------------|
E|-3--------------3----------------------------------------------------------|

Chorus:
  A chord diagramA majorA                             A chord diagramB minorBm
e|---------------------------------------------------------------------------|
B|-------5--------------5--------------7-------------7-----------------------|
G|-----6---6----------6---6----------7---7---------7---7---------------------|
D|---7-------7------7-------7------9-------9-----9-------9-------------------|
A|-7--------------7----------------------------------------------------------|
E|-------------------------------7-------------7-----------------------------|

  A chord diagramG MajorG                              A chord diagramA majorA
e|---------------------------------------------------------------------------|
B|-------3--------------3--------------5-------------5-----------------------|
G|-----4---4----------4---4----------6---6---------6---6---------------------|
D|---5-------5------5-------5------7-------7-----7-------7-------------------|
A|-------------------------------7-------------7-----------------------------|
E|-3--------------3----------------------------------------------------------|

  A chord diagramA majorA                             A chord diagramB minorBm
e|---------------------------------------------------------------------------|
B|-------5--------------5--------------7-------------7-----------------------|
G|-----6---6----------6---6----------7---7---------7---7---------------------|
D|---7-------7------7-------7------9-------9-----9-------9-------------------|
A|-7--------------7----------------------------------------------------------|
E|-------------------------------7-------------7-----------------------------|

  A chord diagramG MajorG                              A chord diagramA majorA
e|---------------------------------------------------------------------------|
B|-------3--------------3--------------5-------------5-----------------------|
G|-----4---4----------4---4----------6---6---------6---6---------------------|
D|---5-------5------5-------5------7-------7-----7-------7-------------------|
A|-------------------------------7-------------7-----------------------------|

Other versions of Don't Be A Fool

Don't be a foolChords
Don't be a fool (Ver. 2)Chords

Almost there ...

Sign in to get your own page with links to favourite songs and more. You are just one click away...

Login with Facebook Login with Google