Search tabs and chords

Search for song, artist or band

Log in

One click and you are in

Login with Facebook Login with Google

Why sign up and log in

Guitar Tabs Explorer
Shawn Mendes bass tabs for Dont be a fool

Bass tabs

Tuning: Standard (E A D G)

Key: Bm

Difficulty: Novice
Tuning: Standard

Key: B Minor

Time: 12:8


Verse 1: (0:00-0:33)

G|------------------------|------------------------|
D|------------------------|------------------------| x4
A|------------------------|------------------------|
E|------------------------|------------------------|
  1 & a 2 & a 3 & a 4 & a  1 & a 2 & a 3 & a 4 & a


Pre-chorus: (0:33-0:49)

G|------------------------|------------------------|
D|------------------------|------------------------|
A|------------------------|------------------------|
E|7\----------3-----------|5-----------5-----------|
  1 & a 2 & a 3 & a 4 & a  1 & a 2 & a 3 & a 4 & a

G|------------------------|------------------------|
D|------------------------|------------------------|
A|------------------------|------------------------|
E|7\----------3-----------|5---------5-5-----------|
  1 & a 2 & a 3 & a 4 & a  1 & a 2 & a 3 & a 4 & a

Chorus: (0:49-1:22)

G|------------------------|------------------------| ***
D|------------------------|------------------------|   *
A|------------------------|------------------------|   *
E|5---------0-5-----7/9---|7---------0-7---------7/|   *
  1 & a 2 & a 3 & a 4 & a  1 & a 2 & a 3 & a 4 & a     *
                                                       * (x2)
G|------------------------|------------------------|   *
D|------------------------|------------------------|   *
A|------------------------|------------------------|   *
E|3---------0-3-----5/7---|5---------0-5-----------| ***
  1 & a 2 & a 3 & a 4 & a  1 & a 2 & a 3 & a 4 & a


Verse 2: (1:22-1:54)

G|------------------------|------------------------| ***
D|------------------------|------------------------|   *
A|------------------------|------------------------|   *
E|5---------0-5-----7/9---|7---------0-7---------7/|   *
  1 & a 2 & a 3 & a 4 & a  1 & a 2 & a 3 & a 4 & a     *
                                                       * (x2)
G|------------------------|------------------------|   *
D|------------------------|------------------------|   *
A|------------------------|------------------------|   *
E|3---------0-3-----5/7---|5---------0-5-----------| ***
  1 & a 2 & a 3 & a 4 & a  1 & a 2 & a 3 & a 4 & a


Chorus: (1:54-2:27)

G|------------------------|------------------------|
D|------------------------|------------------------|
A|------------------------|------------------------|
E|5---------0-5-----7/9---|7---------0-7---------7/|
  1 & a 2 & a 3 & a 4 & a  1 & a 2 & a 3 & a 4 & a

G|------------------------|------------------------|
D|------------------------|------------------------|
A|------------------------|------------------------|
E|3---------0-3-----5/7---|5---------0-5-----------|
  1 & a 2 & a 3 & a 4 & a  1 & a 2 & a 3 & a 4 & a

G|------------------------|------------------------|
D|------------------------|------------------------|
A|------------------------|------------------------|
E|5---------0-5-----7/9---|7---------0-7---------7/|
  1 & a 2 & a 3 & a 4 & a  1 & a 2 & a 3 & a 4 & a

G|------------------------|------------------------|
D|------------------------|------------------------|
A|------------------------|------------------4-5-7-|
E|3---------0-3-----5/7---|5---------0-5-----------|
  1 & a 2 & a 3 & a 4 & a  1 & a 2 & a 3 & a 4 & a

Bridge: (2:27-2:59)

G|------------------------|------------------2h4-2---|
D|7-----------------------|------------------------4-|
A|------------------------|--------------------------|
E|----------0-5-----7/9---|7---------0-7-------------|
  1 & a 2 & a 3 & a 4 & a  1 & a 2 & a 3 & a 4   & a

G|------------------------|------------------------|
D|------------------------|------------------------|
A|------------------------|------------------------|
E|3---------0-3-----5/7---|5---------0-5-----5\----|
  1 & a 2 & a 3 & a 4 & a  1 & a 2 & a 3 & a 4 & a

G|------------------------|------------------------|
D|------------------------|------------------------|
A|------------------------|------------------------|
E|------------------------|------------------------|
  1 & a 2 & a 3 & a 4 & a  1 & a 2 & a 3 & a 4 & a

G|------------------------|------------------------|
D|------------------------|------------------------|
A|------------------------|------------------4-5-7-|
E|------------------------|5-5-5-5-5-5-5-5-5-------|
  1 & a 2 & a 3 & a 4 & a  1 & a 2 & a 3 & a 4 & a


Chorus: (2:59-3:16)

G|------------------------|------------------2h4-2---|
D|7-----------------------|------------------------4-|
A|------------------------|--------------------------|
E|----------0-5-----7/9---|7---------0-7-------------|
  1 & a 2 & a 3 & a 4 & a  1 & a 2 & a 3 & a 4   & a

G|------------------------|------------------------|
D|------------------------|------------------------|
A|------------------------|------------------4-5-7-|
E|3---------0-3-----5/7---|5---------0-5-----------|
  1 & a 2 & a 3 & a 4 & a  1 & a 2 & a 3 & a 4 & a


Outro: (3:16-3:32)

G|------------------------|------------------------|
D|7-----------------------|------------------------|
A|------------------------|------------------------|
E|------------------------|------------------------|
  1 & a 2 & a 3 & a 4 & a  1 & a 2 & a 3 & a 4 & a

G|------------------------|------------------------|
D|------------------------|------------------------|
A|------------------------|------------------------|
E|------------------------|------------------------|
  1 & a 2 & a 3 & a 4 & a  1 & a 2 & a 3 & a 4 & a

************************************

| /   Slide up
| \   Slide down
| h   Hammer on
| p   Pull off

************************************

Almost there ...

Sign in to get your own page with links to favourite songs and more. You are just one click away...

Login with Facebook Login with Google